Oops, an error
Loading. Please wait.
We have an official Fake It tab made by UG professional guitarists. Check out the tab »
×
by Seether
59,357 views 27 this week
24 commentsread comments
1 2 3 4 5
x 29
add to favorites
×
Save as Personal and add changes to this tab that will be seen only by you. Learn more ›
×
You can save this tab as Personal to edit and correct it or add notes. All changes will be seen only by you. Learn more »
launch autoscroll
font size
0
reset
how to read this tab
guitar tuner
edit
Autoscroll
slow
fast
+/-
esc
set tempo
stop
All you need to know for this is that / means slide


Who's to know if your soul will fade at all
The one you sold to fool the world
You lost your self-esteem along the way
Yeah 

  Verse 1 (2x)
e]---------------------------------------------------------------------|
B]---------------------------------------------------------------------|
G]---5-5--5/8-8--8--------10-10/8-8/5-5--5/8-8--8-------------8-8/5-5--|
D]---5-5--5/8-8--8-8-8--8-10-10/8-8/5-5--5/8-8--8-8-8--8/5-5--8-8/5-5--| (2x)
A]---3-3--3/6-6--6-8-8--8--8--8/6-6/3-3--3/6-6--6-8-8--8/5-5--6-6/3-3--|
E]-----------------6-6--6-------------------------6-6--6/3-3-----------|     
                               
Good God, your comin' up with reasons
Good God, your dragging it out
Good God, it's the changing of the seasons
I feel so raped
SO FOLLOW ME DOWN! 

  Chorus
e]------------------------|
B]------------------------|
G]---5-5--555-5/8-8-888-10| x3
D]---5-5--333-5/8-8-888-10|
A]---3-3--333-3/6-8-666--8|
E]------------------------|

So just
Fake it if your out of direction
Fake it if you don't belong, yeah
Fake it if you feel like infection 

e]-------------------------------------|
B]-------------------------------------|
G]---5----8---10---10---10---8---5-----|
D]---5----8---10---8----10---8---5-----|
A]---3----6----8---------8---6---3-----|
E]-------------------------------------|
  Whoa    oh   oh
  You're such a fuckin' hypocrite 

Verse 2 
And you should know that the lies won't hide your flaws
No sense in hiding all of yours
You gave up on your dreams along the way
Yeah

(Repeat verse 1 tab)

Good God, your comin' up with reasons
Good God, you're dragging it out
Good God, it's the changing of the seasons
I feel so raped
SO FOLLOW ME DOWN 

Repeat Chorus

Solo
e]--------------------------|-------------------------------------------|
B]----------18(x7)----------|-------------------------------------------|
G]---20(x7)--------20(x7)---|-------------------------------------------|
D]--------------------------|(x2)----10-10-10-8-8-8-6-6-6-5-5-5---------|
A]--------------------------|-------------------------------------------|
E]--------------------------|-------------------------------------------|
                  
e]------------------------------------------|
B]------------------------------------------|
G]---7-8-7-----------------------7-8-7------|
D]----------8-10-8-10-------------------8-10| x2
A]---------------------8-10-8-6-------------|
E]------------------------------------------|

End solo like this the first time
e]-------------------------|
B]---------------8---------|
G]-------8---10------------|
D]-8-10--------------------|
A]-------------------------|
E]-------------------------|

End like this the second time
e]-----------------------|
B]-------8--------11---13|
G]--8-10----10-12--------|
D]-----------------------|
A]-----------------------|
E]-----------------------|

Bridge
e]-----------------------|----------------------------|   
B]-----------------------|----------------------------|
G]---5-5------------8-8--|-----5-5--7-7--8-8--10-10--5|
D]---5-5--8-8--5-5--6-6--|(x3)-5-5--7-7--8-8--10-10--5|
A]---3-3--8-8--5-5--6-6--|-----3-3--5-5--6-6---8--8--3|
E]--------6-6--3-3-------|----------------------------|

I can fake with the best of anyone
I can fake with the best of 'em all
I can fake with the best of anyone
I can fake it all 

Repeat verse and chorus solo
(The second time the chorus plays a second guitar plays the solo)


            
            
Suggest correction
Creating personal tab
Creating personal tab
You can edit any tab online and save it as your Personal.

You can edit, replace or remove any tab part or add personal notes – all changes will be seen only by you.

Personal tabs can be accessed anytime from any device, even offline.
Learn more »
comments
print report bad tab
24 comments total. Showing first comments.
0 reply
White-Trash Wil 102 Oct 13, 2007 01:22 PM

seems like a good tab dont know about the solo begining but the rest is good 4*

0 reply
TeXaS_db 151 Oct 16, 2007 03:39 PM

what kind of effect does he use for the solo

0 reply
Dark_Raven10 80 Oct 17, 2007 07:37 PM

No way in hell.

guest
Wanna post a correction for this tab? Suggest correction