Oops, an error
Loading. Please wait.

Fake It Bass Tab

version 3
version 3

Whole song

Interactive

7,381 views 1 this week
3 commentsread comments
1 2 3 4 5
excellent!
x 6
add to favorites
launch autoscroll
font size
0
reset
guitar tuner
Tab Pro tools
  • play this tab
  • loop segment
  • change instrument
  • show fretboard
  • metronome
×
Best way to learn
"Fake It"
Autoscroll
slow
fast
+/-
esc
set tempo
stop
Contributor
Difficulty
intermediate
----------------------------------------------------------------------------
			     FAKE IT - Seether
----------------------------------------------------------------------------

Tabbed By : Harley Fay
e-mail: wefay@charter.net

Tuning: Standard (5-String)

VERSE: x4
G|------------------------------------------|
D|------------------------------------------|
A|-------------------6----------------------|
E|-88-8------66-6------88-8------66-6-------|
B|------44-4------66--------44-4------66-44-|

CHORUS: x3 (Fake it....)
G|------------------------------------|
D|------------------------------------|
A|------------------------------------|
E|--------------------------------6-6-|
B|--1-1----1-1-1-----1-4-4--4-4-4-----|

POST-CHORUS: (whoa....)
G|----------------------|
D|----------------------|
A|------6666------------|
E|-8888------6666-------|
B|----------------66-44-|

VERSE: x4
G|------------------------------------------|
D|------------------------------------------|
A|-------------------6----------------------|
E|-88-8------66-6------88-8------66-6-------|
B|------44-4------66--------44-4------66-44-|

CHORUS: x3 (Fake it....)
G|------------------------------------|
D|------------------------------------|
A|------------------------------------|
E|--------------------------------6-6-|
B|--1-1----1-1-1-----1-4-4--4-4-4-----|

POST-CHORUS: (whoa....)
G|----------------------|
D|----------------------|
A|------6666------------|
E|-8888------6666-------|
B|----------------66-44-|

INTERLUDE: (those are 4's 8's and 1's)
G|-----------------------------------------------------|
D|-----------------------------------------------------|
A|---------------------------------------------666-888-|
E|-------------------------------------888-666---------|
B|-4-44-44-44-48-88-88-88-81-11-11-11-1----------------|

G|-----------------------------------------------------|
D|-----------------------------------------------------|
A|-----------------------------------------------------|
E|-------------------------------------888-666-444-3---|
B|-44-44-44-44-88-88-88-88-11-11-11-11-----------------|

SOLO: x4
G|---------------------|
D|---------------------|
A|---------------------|
E|-8888------6666------|
B|------4444------6666-|

BRIDGE: X3 (I can fake it)
G|---------------------|
D|---------------------|
A|---------------------|
E|-8888-6666-----------|
B|-----------6666-4444-|

BRIDGE PT.2:
G|---------------------------------------------|
D|---------------------------------------------|
A|---------------------------------------------|
E|-8-8-8-8-10-10-10-10-13-13-13-13-15-15-15-15-|
B|---------------------------------------------|

VERSE: X4
G|------------------------------------------|
D|------------------------------------------|
A|-------------------6----------------------|
E|-88-8------66-6------88-8------66-6-------|
B|------44-4------66--------44-4------66-44-|

CHORUS:X3 (Fake it....)
G|------------------------------------|
D|------------------------------------|
A|------------------------------------|
E|--------------------------------6-6-|
B|--1-1----1-1-1-----1-4-4--4-4-4-----|

POST-CHORUS/OUTRO: (whoa....)
G|-----------------------|
D|-----------------------|
A|------6666-------------|
E|-8888------6666--------|
B|----------------66-44--|


CHORUS:X3 (Fake it....)
G|------------------------------------|
D|------------------------------------|
A|------------------------------------|
E|--------------------------------6-6-|
B|--1-1----1-1-1-----1-4-4--4-4-4-----|

POST-CHORUS/OUTRO: (whoa....)
G|------------------------|
D|------------------------|
A|------6666--------------|
E|-8888------6666---------|
B|----------------66-44-1-|




comments
print report bad tab
3 comments total.
0 reply
Dierbergsbagger wrote on July 31 2010, 10:33 pm

Good tab, the only question I have is why didn't you change all the 8's on E to 3's on B? It's much easier to jump 1 fret than 4 and a string.

0 reply
richie.baskervi wrote on April 5 2013, 08:38 pm

I doesn't sound right(at least to me) going from the 3 on the A to the 4 on the B

0 reply
Dierbergsbagger wrote on August 2 2010, 04:44 pm

correction: I meant A string, sorry

I want to post or [tab]
guest
You may want to rate the tab now too:
select rating
Please do not post tabs as comments. Select "correction" instead!