Oops, an error
Loading. Please wait.

Fake It Bass Tab

version 4
version 4

Whole song

Interactive

1,968 views 1 this week
1 commentread comment
1 2 3 4 5
poor
x 1
add to favorites
launch autoscroll
font size
0
reset
guitar tuner
Tab Pro tools
  • play this tab
  • loop segment
  • change instrument
  • show fretboard
  • metronome
×
Best way to learn
"Fake It"
Autoscroll
slow
fast
+/-
esc
set tempo
stop
Contributor
Difficulty
intermediate
Verse:

              X7                        last one
G|---------------------------|----------------------------|
D|----------------8-8-8------|----------------------------|
A|----------------------8-8-6|----------------------8-8-6-|
E|-8-8-8-11-11-11------------|-8-8-8-11-11-11-6-6-6-------|


Chorus:

              X3                        last one
G|-------------------------|-----------------------------------|
D|-------------------------|-----------------------------------|
A|-3-3-3-3-3-3-6-6-6-6-6---|-3-3-3-3-6-6-6-6-10-10-8-8-6-6-5-5-|
E|-----------------------6-|-----------------------------------|


Bridge #1:

G|-------------------------------------------------------|-----------------|
D|-------------------------------------------------------|---------5-5-8-8-|
A|6-6-6-6-6-6-6-6-10-10-10-10-10-10-10-10-3-3-3-3-3-3-3-3|-6-6-8-8---------|
E|-------------------------------------------------------|-----------------|

G|-------------------------------------------------------|------------------|
D|-------------------------------------------------------|------------------|
A|6-6-6-6-6-6-6-6-10-10-10-10-10-10-10-10-3-3-3-3-3-3-3-3|101010-333-666-555|
E|-------------------------------------------------------|------------------|


Bridge #2:

              X3                        last one
G|-----------------------------|---------------------------------|
D|-----------------------------|---------------------------------|
A|-3-3-3-3-6-6-6-6---------8-6-|-3-3-3-3-5-5-5-5-6-6-6-6-8-8-8-8-|
E|-----------------6-6-6-6-----|---------------------------------|
comments
We did not receive enough feedback on this tab! Please rate:
print report bad tab
1 2 3 4 5
1 comment total.
0 reply
robb11 wrote on February 6 2015, 10:30 pm

Lack of accuracy. Clearly wrong. The tuning for this tab is off completely it's supposed to be in drop c. The notes are also wrong here.

I want to post or [tab]
guest
You may want to rate the tab now too:
select rating
Please do not post tabs as comments. Select "correction" instead!