Oops, an error
Loading. Please wait.

Fake It Tab

version 4
version 4
15,665 views 3 this week
3 commentsread comments
1 2 3 4 5
accurate
x 6
add to favorites
launch autoscroll
font size
0
reset
how to read this tab
guitar tuner
Autoscroll
slow
fast
+/-
esc
set tempo
stop
Help us to improve Ultimate-Guitar.com Take our survey!
×
Contributor
[travis] 4,564
-------------------------------------------------------------------------------
                             "Fake It" --- Seether
-------------------------------------------------------------------------------


Tabbed by: [travis]


Tuning: All Guitars === [C G C F A D] low to high


Legend:

. = palm mute
h = hammer on
p = pull off
b = bend
_ = hold bend
~ = vibrato
x = muffled string
/ = slide up
\ = slide down
h/ = pick once
h/p\ = pick once



==========================================

No guitars on this part:
"Who's to know if...along the way."

==========================================
"Yeah. Good God...so follow me down and just"
Guitar 1: Reapeat the bar between the |o|'s only.
D|-----------|-|--0--0----------------------------------------------|-|
A|-----------|O|--3--3----------------------------------------------|O|
F|--------2--|-|--2--2--------5--5----------------------7-----5-----|-|
C|-x--x---0--|-|--0--0--x-----3--3--x-----10--10--x-----5-----3-----|-| x4
G|-x--x---0--|O|--0--0--x--0--3--3--x--0--10--10--x--0--5--0--3--0--|O|
C|--------0--|-|--0--0-----0--3--3-----0--10--10-----0--5--0--3--0--|-|

===========================================
Chorus 1:
Guitar 1:
D|---------------------------------------------------|
A|---------------------------------------------------|
F|-------------------------5--5-----5--5-------------|
C|-0--0-----0--0--0-----0--3--3-----3--3--0--10--10--| x3
G|-0--0--x--0--0--0--x--0--3--3--x--3--3--0--10--10--|
C|-0--0--x--0--0--0--x--0--3--3--x--3--3--0--10--10--|

===========================================
Chorus Continued:
Guitar 1:
D|----------------------------------------------|
A|----------------------------------------------|
F|--------------10-10-10-10---------------------|
C|-12-12-12-12--10-10-10-10--10-10-10---5-5-3-3-| x1
G|-12-12-12-12--8--8--8--8---10-10-10-0-5-5-3-3-|
C|-12-12-12-12---------------10-10-10-0-5-5-3-3-|

===========================================
"And you should know...hiding all of yours"
Guitar 1:
D|-------------------------------------------------------------------|
A|----3~-------------------------------------------------------------|
F|----2~-------------------------------------------------------------|
C|-0--0~-----x---------x-------x--x-x---------x---------x---------x--| x1
G|-0--0~-----x---------x-------x--x-x---------x---------x---------x--|
C|-0--0~-----x---------x-------x--x-x---------x---------x---------x--|

===========================================
"You gave up your dreams along the way. Yeah"
Guitar 1:
D|--------------------------------------------------------------|
A|----3~--------------------------------------------------------|
F|----2~--------------------------------------------------------|
C|-x--0~----x-------x-------x--x-x--------x-----x-----x--x------| x1
G|-x--0~----x-------x-------x--x-x--------x-----x-----x--x---0--|
C|-x--0~----x-------x-------x--x-x--------x-----x-----x--x---0--|

===========================================
"Good God you're coming up...so follow me down and just"
Guitar 1:
D|-0--0------------------------------------------------|
A|-3--3------------------------------------------------|
F|-2--2---------5--5-----------------------7-----5-----|
C|-0--0------0--3--3---------10--10-----0--5-----3-----| x4
G|-0--0---x--0--3--3---x--0--10--10--x--0--5--0--3--0--|
C|-0--0---x--0--3--3---x--0--10--10--x--0--5--0--3--0--|

============================================

Chorus 2:
Guitar 1:
D|---------------------------------------------------|
A|---------------------------------------------------|
F|-------------------------5--5-----5--5-------------|
C|-0--0-----0--0--0-----0--3--3-----3--3--0--10--10--| x3
G|-0--0--x--0--0--0--x--0--3--3--x--3--3--0--10--10--|
C|-0--0--x--0--0--0--x--0--3--3--x--3--3--0--10--10--|

===========================================
Chorus Continued:
Guitar 1:
D|----------------------------------------------|
A|----------------------------------------------|
F|--------------10-10-10-10---------------------|
C|-12-12-12-12--10-10-10-10--10-10-10---5-5-3-3-| x1
G|-12-12-12-12--8--8--8--8---10-10-10-0-5-5-3-3-|
C|-12-12-12-12---------------10-10-10-0-5-5-3-3-|



===========================================
"Whoa"
Interlude: 
Guitar 1:
D|----------------------------------------------------|
A|----------------------------------------------------|
F|-5---5--5---5--5---9---9--9--9--9--9----------------|
C|-3---3--3---3--3---7---7--7--7--7--7---0--0-0--0-0--|
G|-3---3--3---3--3---7---7--7--7--7--7---0--0-0--0-0--|
C|-3---3--3---3--3---7---7--7--7--7--7---0--0-0--0-0--|

Guitar 2:
There's some kind of effect being used here. 
D|-13--13--13--13--/20--20--20--20--\13--13--13--13---|
A|----------------------------------------------------|
F|----------------------------------------------------|
C|----------------------------------------------------|
G|----------------------------------------------------|
C|----------------------------------------------------|

===========================================
"Whoa"
Interlude Continued:
Guitar 2:
D|--------------------------------|
A|--------------------------------|
F|-9-9-9-7-7-7-12-12-12-14-14-14--|
C|-x-x-x-x-x-x--x--x--x--x--x--x--| x1
G|-7-7-7-5-5-5-10-10-10-12-12-12--|
C|--------------------------------|

===========================================
Interlude Continued:
Guitar 1:
D|----------------------------------------------------|
A|----------------------------------------------------|
F|-5---5--5---5--5---9---9--9--9--9--9----------------|
C|-3---3--3---3--3---7---7--7--7--7--7---0--0-0--0-0--| x1
G|-3---3--3---3--3---7---7--7--7--7--7---0--0-0--0-0--|
C|-3---3--3---3--3---7---7--7--7--7--7---0--0-0--0-0--|

Guitar 2:
There's some kind of effect being used here. 
D|-13--13--13--13--/20--20--20--20--\13--13--13--13---|
A|----------------------------------------------------|
F|----------------------------------------------------|
C|----------------------------------------------------| x1
G|----------------------------------------------------|
C|----------------------------------------------------|

============================================
Guitar 2:
D|-----------------------------------|
A|-----------------------------------|
F|-14-14-14-12-12-12-10-10-10-9-9-9--|
C|--x--x--x--x--x--x-x--x--x--x-x-x--| x1
G|-12-12-12-10-10-10-8--8--8--7-7-7--|
C|-----------------------------------|

============================================
Guitar Solo:
Guitar 2:
D|-------------------------------------------------------------------|
A|-5-6-5-----------------------------5-6-5-------------6-8---10~~~~--|
F|-------5h/7---5-7~~~---------------------5h/7--5-7~~---------------|
C|---------------------5-7--5-3--------------------------------------| x1
G|-------------------------------------------------------------------|
C|--------------------------------7----------------------------------|

Guitar 1:
D|-------------------------------------------------------------------|
A|-------------------------------------------------------------------|
F|-------------------------------------------------------------------|
C|-x-x-x-x---x-x-x---x-x-x----x-x-x---x-x-x---x-x-x---x-x-x---x-x-x--| x1
G|-x-x-x-x---x-x-x---x-x-x----x-x-x---x-x-x---x-x-x---x-x-x---x-x-x--|
C|-x-x-x-x---x-x-x---x-x-x----x-x-x---x-x-x---x-x-x---x-x-x---x-x-x--|

=============================================
Guitar 2:
D|---------------------------------------------------------------------------------------|
A|-------------------------------------------------------------------------13~~-15-15-15-|
F|-x-9-10-9---------------------------------9-10-9--------10-12-14~~-12-14---------------|
C|----------10h/12--10-12~~~-----------------------10h/12--------------------------------| x1
G|---------------------------10-12-10--8-------------------------------------------------|
C|----------------------------------------7----------------------------------------------|

Guitar 1:
D|------------------------------------------------|
A|------------------------------------------------|
F|------------------------------------------------|
C|-x-x-x---x-x-x---x-x-x---x-x-x---x-x-x---x-x-x--| x4
G|-x-x-x---x-x-x---x-x-x---x-x-x---x-x-x---x-x-x--|
C|-x-x-x---x-x-x---x-x-x---x-x-x---x-x-x---x-x-x--|

=============================================
"I can fake with the best...best of them all"
Guitar 2:
D|-------------------13-13-------------------13-15-|
A|-15-15-15-15-15-15-------15-15-15-15-15-15-------|
F|-------------------------------------------------|
C|-------------------------------------------------| x1
G|-------------------------------------------------|
C|-------------------------------------------------|

Guitar 1:
D|-------------------------------------------------------------|
A|-------------------------------------------------------------|
F|-------------------------------------------------------------|
C|-12-12-12-12-12-12-10-10-10-10-10-10-5-5-5-5-5-5-3-3-3-0-0-0-| x2
G|-12-12-12-12-12-12-10-10-10-10-10-10-5-5-5-5-5-5-3-3-3-0-0-0-|
C|-12-12-12-12-12-12-10-10-10-10-10-10-5-5-5-5-5-5-3-3-3-0-0-0-|

==============================================
"I can fake with the best...fake it all"
Guitar 2:
D|-------------------13-13-13-------12-12-13-13-15-15-|
A|-15-15-15-15-15-15----------15-15-------------------|
F|----------------------------------------------------|
C|----------------------------------------------------| x1
G|----------------------------------------------------|
C|----------------------------------------------------|

Guitar 1: Listen for rhythm of each chord.
D|----------------------------------------|
A|----------------------------------------|
F|----------------------------9---12---14-|
C|-12---10---5---3---0---12---9---12---14-| x1
G|-12---10---5---3---0---12---7---10---12-|
C|-12---10---5---3---0---12---------------|

==============================================
"Who's to know...along the way"
Guitar 2:
D|--------------|
A|-15~~~~~~~~~~-|
F|--------------|
C|--------------| x1
G|--------------|
C|--------------|

==============================================
"Yeah. Good God...changing of the seasons."
Guitar 1: Reapeat the bar between the |o|'s only.
D|-----------|-|--0--0----------------------------------------------|-|
A|-----------|O|--3--3----------------------------------------------|O|
F|--------2--|-|--2--2--------5--5----------------------7-----5-----|-|
C|-x--x---0--|-|--0--0--x-----3--3--x-----10--10--x-----5-----3-----|-| x3
G|-x--x---0--|O|--0--0--x--0--3--3--x--0--10--10--x--0--5--0--3--0--|O|
C|--------0--|-|--0--0-----0--3--3-----0--10--10-----0--5--0--3--0--|-|

==============================================
"I feel so...and just"
Guitar 1:
D|----------------------------------------------|
A|----------------------------------------------|
F|--------------10-10-10-10---------------------|
C|-12-12-12-12--10-10-10-10--10-10-10---5-5-3-3-| x1
G|-12-12-12-12--8--8--8--8---10-10-10-0-5-5-3-3-|
C|-12-12-12-12---------------10-10-10-0-5-5-3-3-|

===============================================

Chorus 3:
Guitar 1:
D|---------------------------------------------------|
A|---------------------------------------------------|
F|-------------------------5--5-----5--5-------------|
C|-0--0-----0--0--0-----0--3--3-----3--3--0--10--10--| x3
G|-0--0--x--0--0--0--x--0--3--3--x--3--3--0--10--10--|
C|-0--0--x--0--0--0--x--0--3--3--x--3--3--0--10--10--|

===========================================
Chorus Continued:
Guitar 1:
D|----------------------------------------------|
A|----------------------------------------------|
F|--------------10-10-10-10---------------------|
C|-12-12-12-12--10-10-10-10--10-10-10---5-5-3-3-| x1
G|-12-12-12-12--8--8--8--8---10-10-10-0-5-5-3-3-|
C|-12-12-12-12---------------10-10-10-0-5-5-3-3-|



===========================================
"Fake it if you're out...don't belong yeah"
Guitar 1:
D|--------------------------------------------------|
A|--------------------------------------------------|
F|-------------------------5--5-----5--5------------|
C|-0--0-----0--0--0-----0--3--3-----3--3--0--10--10-| x2
G|-0--0--x--0--0--0--x--0--3--3--x--3--3--0--10--10-|
C|-0--0--x--0--0--0--x--0--3--3--x--3--3--0--10--10-|


Guitar 2:
D|-------------------------------------------------------------------|
A|-5-6-5-----------------------------5-6-5-------------6-8---10~~~~--|
F|-------5h/7---5-7~~~---------------------5h/7--5-7~~---------------|
C|---------------------5-7--5-3--------------------------------------| x1
G|-------------------------------------------------------------------|
C|--------------------------------7----------------------------------|

=============================================
"Fake it if you feel like affection"
Guitar 1: Play both of these bars during the ending and Guitar 2's part.
D|--------------------------------------------------|
A|--------------------------------------------------|
F|-------------------------5--5-----5--5------------|
C|-0--0-----0--0--0-----0--3--3-----3--3--0--10--10-| x1
G|-0--0--x--0--0--0--x--0--3--3--x--3--3--0--10--10-|
C|-0--0--x--0--0--0--x--0--3--3--x--3--3--0--10--10-|

"Whoa. You're such a f***ing hypocrite."
Guitar 1: This is played after the bar above ^^^.
D|------------------------------------------------|
A|------------------------------------------------|
F|-------------10-10-10-10------------------------|
C|-12-12-12-12-10-10-10-10-10-10-10---5-5-3-3--0--| x1
G|-12-12-12-12--8--8--8--8-10-10-10-0-5-5-3-3--0--|
C|-12-12-12-12-------------10-10-10-0-5-5-3-3--0--|


Guitar 2:
D|---------------------------------------------------------------------------------------|
A|-------------------------------------------------------------------------13~~-15-15-15-|
F|-x-9-10-9---------------------------------9-10-9--------10-12-14~~-12-14---------------|
C|----------10h/12--10-12~~~-----------------------10h/12--------------------------------| x1
G|---------------------------10-12-10--8-------------------------------------------------|
C|----------------------------------------7----------------------------------------------|



Please Rate and Comment.
Thanks
[travis]



=====================================================
comments
print report bad tab
3 comments total.
0 reply
Puddle ofMudd25 215 wrote on January 6 2009, 10:25 pm

Great song, awesome tab, good job!

0 reply
[travis] 4,564 wrote on January 7 2009, 01:35 am

Thanks Puddle ofMudd25.

0 reply
WetDreams 14 wrote on January 14 2015, 11:55 pm

Lack of accuracy. Clearly wrong. 1 2 3 4 5 6 7 8 9 10 11 12 13 14 15 16 17 18 19 20

I want to post or [tab]
guest
You may want to rate the tab now too:
select rating
Please do not post tabs as comments. Select "correction" instead!