Oops, an error
Loading. Please wait.

Fallen Bass Tab

version 1
version 1

Whole song

Interactive

12,960 views 9 this week
8 commentsread comments
1 2 3 4 5
x 3
add to favorites
launch autoscroll
font size
0
reset
guitar tuner
Autoscroll
slow
fast
+/-
esc
set tempo
stop
Help us to improve Ultimate-Guitar.com Take our survey!
×
-------------------------------------------------------------------------------
			     Seether - Fallen
-------------------------------------------------------------------------------
Tabbed by: buba1986
Email: buba1986@hotmail.co.uk

Tuning: Drop C

This is my first tab. Enjoy
Please look at the song order at the bottom of the page for help.
Standard tunning.


By: David Gonzalez
E-mail: Davidgonzalezbassist4rbv@yahoo.com

Intro/chorus

g --------------------------------------------------------------------------|
d --------------------------------------------------------------------------|
a -------------3--5--------------3------------------------------------------|
e -0--3--5--0--------0--3--5--0-----5---------------------------------------|

Verse

g ----------|---------------|-----------------------------------------------|
d ----------|---------------|-------play the whole verse twice--------------|
a ----------|---------------|-----------------------------------------------|
e -0-0-3-4--|--0--0--0-3-4--|-x7--------------------------------------------|

Pre-chorus

g --------------------------------------------------------------------------|
d --------------------------------------------------------------------------|
a --------------------------------------------------------------------------|
e ----------5-x8-----8-x8-----5-x8-----8-x8---------------------------------|

Bridge Part 1 and 2

g --------------------------------------------------------------------------|
d --------------------------------------------------------------------------|
a --------------------------------------------------------------------------|
e --0-0-0-3--0-0-0-5--0-0-0-7--0-0-10/9-9-----------------------------------|

Song order

Intro
Verse
Pre-chorus
Chorus
Verse
Pre-chorus
Chorus
Bridge part 1
Bridge part 2
Chorus

| ^  bend up
| /  slide up
| \  slide down
| h  hammer-on
| p  pull-off
| ~  vibrato
| +  harmonic
| x  Mute note
===============================================================================
Suggest correction
Give kudos to tab author, rate the tab!
1 2 3 4 5
comments
print report bad tab
8 comments total. Showing first comments.
+1 reply
Bass Pants 1,920 Dec 12, 2007 10:56 AM

the verse is a little off but other than that its ok

+1 reply
Mike84 10 Dec 16, 2007 03:00 AM

wrong its in drop c

+1 reply
BassFaceBass 10 Dec 24, 2007 11:26 AM

it is in drop c^^^

guest
You may want to rate the tab now too:
select rating
Wanna post a correction for this tab? Suggest correction