Oops, an error
Loading. Please wait.

Finding Beauty In Negative Spaces Bass Tab

3,496 views 1 this week
9 commentsread comments
1 2 3 4 5
accurate
x 4
add to favorites
launch autoscroll
font size
0
reset
guitar tuner
Autoscroll
slow
fast
+/-
esc
set tempo
stop
Help us to improve Ultimate-Guitar.com Take our survey!
×
Author
Band: Seether
Album: Finding Beauty In Negative Spaces
Bassist: Dale Stewart
Released: Oct 23rd 2007
Tuning: C,G,C,F

All Tabs Created by Bass Pants...please do not copy without permission...thank you and 
corrections would be appreciated (cause i know i'm not perfect Thank you for looking

BIG UPDATE: as of May 1st 2008

1. "Like Suicide"

Rest

Verse
|--------------------------------------|
|--------------------------------------|
|--------------------------------------|
|-5\2--0-0-0h2p1-0-0-0h2p1-0-0-0-3-1-1-|

Chorus x2
|---------------------------------|
|---------------------------------|
|-----------------1-1-1-1---------|
|-0-0-0-0-3-3-3-3---------5-5-5-5-|

Post-Chorus
|----------------------------------------------------------------------------------|
|----------------------------------------------------------------------------------|
|-----------------5-7--------------------------------------------5-7-----7---------|
|-5-3-5-0-5-3-5-0-----5-3-5-0-5-3-5-0---3-5-0---5-3-5-0-5-3-5-0------5-3---3-0-0-0-0-|

Verse until Chorus

Chorus x2

Post Chorus

Verse

then
|----------------------------------------------------------------------------|
|----------------------------------------------------------------------------|
|--3-/-5-5-5--5-/-3-3-3--3-/-0-0-0-------------------------------------------|
|----------------------------------5-3-0--3-/-5-5-5-5-3-0--3-/-5-5-5-5-/-7-0-|

Chorus x4

Outro
|-------------|
|-------------|
|-----1-3-5h6-|
|-0-0---------| x16

2. "Fake It"

Verse
|-------------------------------|
|----------------------------3--|
|-5-5--5--------3-3--3----------|
|--------3-3--3---------3-3-----|

Chorus
|-----------------------------------------------------------|
|-----------------------------------------------------------|
|------------------------3-------------------------3--------|
|-0-0---0-0-0---0-3-3--0---3-0-0---0-0-0---0-3-3------0-----|

End of Chorus
|---------------------------------|
|---------------------------------|
|-5-5-5----8-8-8---3-3-3----------|
|--------------------------5-3----|

Verse

Chorus

Bridge
|-----------------------------------------|
|-----------------------------------------|
|-----------------------------------------|
|----3--3--3--3/7--7--7--7--7--0--0--0--0-|

Play End of Chorus during solo

After Solo bit
|---------------------------------------|
|---------------------------------------|
|----5--5--5--3--3--3-------------------|
|----------------------5--5--5--3--3--3-|

Verse

Chorus

3. "Breakdown"

Verse (im not sure if he plays this Correction needed)
|------------------------------|
|------------------------------|
|----------2-2-2-2-0-0-2-0-4-5-|
|--2-2p0-0---------------------|

Chorus
|----------------------------------|     |---------------|
|----------------------------------|     |---------------|
|-3-3-3-3-3-3----------------------|     |---------------|
|-------------2-2-2-2-2-2-0-0-0-0--| x3  |-7-7-7-7-7-7-3-|

Verse

Chorus

Solo
|-----------------------------|
|-----------------------------|
|-3-3-3-3-3-3-----------------|
|-------------2-2-2-2-5-0-2-2-|

Chorus

4. "FMLYHM"

Verse 1
|---------------------------------------------------|
|---------------------------------------------------|
|---------3-2-------------3-3-------------2-3-------|
|-2-2-2-2-----4-1-2-2-2-2-----4-0-2-2-2-2-----0-4-5-|

Pre-Chorus
|-----------------------------------------------------------------|
|-----------------------------------------------------------------|
|-----------------------------------------------------------------|
|-2-2-2-2-2-2-2-2-5-5-5-5-5-5-5-5-2-2-2-2-2-2-2-2-7-7-7-7-7-7-7-7-|

Chorus
|---------------------------------|
|---------------------------------|
|-----------------3-3-3-3---------|
|-2-2-2-2-5-5-5-5---------7-7-7-7-|

Verse

Pre-Chorus

Chorus

Bridge
|-------------------------|
|-------------------------|
|-------------------------|
|-8-7-5-7-7-8-5-3---3-3-5-|

Verse
|----------------------------------------------|
|----------------------------------------------|
|----------------------------------------------|
|-2-2-2-2-5-5-2-2-2-2-5-2-2-2--2-3-5-0-(2-2)---|

Pre-Chorus

Chorus

5. "Fallen"

Intro/Chorus                  Play this when you hear the guitar go higher
|----------------------------|-----------------|
|----------------------------|-------------3-5-|
|---------3-5----------3-----|---------3-5-----|
|-0-3-5-0-----0-3-5-0-----5--|-0-3-5-0---------|

Verse
|----------------|
|----------------|
|----------------|
|-0-0-4-5--0-2-5-| repeat until Pre-Chorus

Pre-Chorus
|-----------------------------|
|-----------------------------|
|-----------------------------|
|-5-5-5-5-5-5-5-8-8-8-8-8-8-8-| x2

Chorus

Verse

Pre-Chorus

Chorus

Bridge
|------------------------------------------------|
|------------------------------------------------|
|------------------------------------------------|
|-0-0-0-2---0-0-0-0--4---0-0-0-0-2---0-0-0-9-8-7-|

Pre-Chorus

Intro (with muted notes at the end)

Chorus

6. "Rise Above This"

Intro/Pre-Chorus/Chorus
|-------------------------------|
|-------------------------------|
|-8-8-8-8-8-8-8-6-6-6-4-4-4-9-9-|
|-------------------------------|

Verse
|-----------------|    |-----------------|
|-----------------|    |-----------------|
|-5-5-5-5-5-5-5-5-|    |-3-2-0-0-0-0-0-0-|
|-----------------| x4 |-----------------| x4 (only 0's)

Pre-Chorus

Chorus

Verse

Pre-Chorus

Chorus

Solo (play Verse)

I Mend myself part (play Chorus Muted)

Chorus

7. "No Jesus Christ"

Intro/Verse
|------------------------------------------------------|
|---0-0-0h10h12---0-0-0h10p12----0-0-0h10p12----0-0-15-|
|------------------------------------------------------|
|------------------------------------------------------| repeat until 
Chorus


Chorus
|------------------------------------------------------|
|------------------------------------------------------|
|------------------------------------------------------|
|---0-0-0h10h12---0-0-0h10h12----0-0-0h10h12----0-0-15-|


Post Chorus
|--------------------|
|--------------------|
|--------------------|
|-5~----3~-----x-x-x-|

Chorus

Bridge x2
|----------------------------------------------------------------------|
|----------------------------------------------------------------------|
|----------------------------------------------------------------------|
|-5-5-5-5-5-5-5-5-5-3-3-3-3-3-3-3-3-3-1-1-1-1-1-1-1-1-0-0-0-0-0-0-0-0--|

Verse

Bridge x4

Outro
|-----------------------|
|-----------------------|
|-----------------------|
|-5~----3~----3~----0~--|

8. "Six Gun Quota"

Intro
|------------------------------------------------|
|---------3-3-3-----5--------------3-3-3---------|
|-5-5-3-0-------5-7---6-5--5-5-3-0-----------5-7-|
|----------------------------------------5-7-----|

Verse
|-------------------------|
|---------3-3-3-----5-----|
|-5-5-3-0-------5-7---6-5-|
|-------------------------|

Pre-Chorus
|--------------------------|
|------------3-3-3---------|
|----5-5-3-0-----------5-7-|
|-5~---------------5-7-----| x2

Chorus
|-------------------------------------------------------|
|-------------------------3-3-3-3-3-3-3-----------------|
|-3-3-3-3-3-3-5-5-5-5-5-5---------------3-3-3-3-7-7-7-7-|
|-------------------------------------------------------|

Verse 2 (repeat until pre-chorus)
|-------------------|
|-------------------|
|-------------------|
|-0-0-0-0-0-0-0-0-0-|

Pre-Chorus
Chorus

Bridge x4
|-----------------------------------|
|-----------------------------------|
|-0-0-0-0-0-0-4-4-4-4-4-7-7-7-7-7-7-|
|-----------------------------------|

Chorus

Intro

9. "Walk Away From The Sun"

Rest

Verse 2
|-----------------------------------------|
|-----------------------------------------|
|-3-3-5--0h3-3-5-5--0h3-3-5-5---0h3-3-1-1-|
|-----------------------------------------|

Pre-Chorus (rest)

Verse 2

Chorus
|------------------------------------------|
|---------------------1-1-1-1-1------------|
|-3-3-3-3-3-5-5-5-5-5-----------0-0-0-0-0--|
|------------------------------------------|

Solo
|---------------------------------|
|----------------1-1-1h3----------|
|-4-4-4--7h8-8-8---------5-5-5-5--|
|---------------------------------|

Rest

Chorus

10. "Eyes Of The Devil"

Rest

Chorus
|-------------------------------------------------------------------------|
|-------------------------------------------------------------------------|
|-3-3-3-3-3-3-3-3-3-------------------------------------------------------|
|-------------------3-3-3-3-3-3-3-3-5-5-5-5-5-5-5-5-5-2-2-2-2-2-2-2-2-2-2-|

Post-Chorus
|--------------------------|
|--------------------------|
|-------3~-----------------|
|-0~-----------5~-------2~-| x2

Rest

Chorus

Post Chorus

Chorus

Post-Chorus x1

11. "Don't Believe"

Intro/Verse Part 1
|---------------------|
|---------------------|
|-0~---0~----0~----0~-|
|---------------------|

Intro 2
|----------------------|
|----------------------|
|------5-5-5-5-2-2-2-2-|
|-3~-------------------|

Verse Part 1 (i can't tell any help would be awesome)

Pre-Chorus
|--------------------|
|--------------------|
|--------------------|
|-0-0-0--0-0-0-0-0-0-|

Chorus
|-----------------------------------------|
|-----------------------------------------|
|---------------------3-3-3-3-3-1-1-1-1-1-|
|-3-3-3-3-3-5-5-5-5-5---------------------|

Post-Chorus
|-----------------------------------|
|-----------------------------------|
|-----------------------------------|
|-5/7-7-7-3-3-3-3-6-6-6-6-6\2-0-0-0-|

Verse Part 1
Pre-Chorus
Chorus

Play the intro during the solo

Pre-Chorus

Chorus x2

Post Chorus

12. "Waste"

Rest

Pre-Verse
|----------|
|-1~----5~-|
|----------|
|----------|

Verse x5
|-----------------|
|-----------------|
|-1~----5-7-3-0-7-|
|-----------------|

Pre-Chorus
|-------------------|
|-------------------|
|-5~--1-1-4---7-5-3-|
|-------------------|

Chorus
|---------------------------------------------------------|
|---------------------------------------------------------|
|-------------3-3-3-3-3-3-3---------------5-5-5-5-2-2-2-2-|
|-5-5-5-5-5-5---------------5-5-5-5-5-5-5-----------------|

Verse

Pre-Chorus

Chorus

Solo (i play the chorus)

Rest

Chorus

THE END
Suggest correction
What's this?
You can suggest a correction to this tab. Community and Mods will review your correction and vote to approve or reject it.
comments
print report bad tab
9 comments total. Showing first comments.
+1 reply
Xak 279 wrote on December 14 2007, 09:57 pm

sorry, dude, but most of this is waaaaaaaaaaaaaaaaaaaaay wrong. i haven't tried to figure out all the songs, but the
ones i know are completely different from what you have here.

+1 reply
Bass Pants 1,818 wrote on December 14 2007, 11:43 pm

i know "Walk Away From the Sun" and "Waste" are but i was hopeing for some corrective feedback that would be more
helpful, thank you

-1 reply
Mike84 11 wrote on December 16 2007, 01:58 am

fake t is wrong nd i just psted the correct tab of it on this site andno jesus christ is realy wrong he whole thing....
the intro of no jesus christ
is


Intro/Verse

F----------------------------------------------------------------
C--0-0-0h10h12--0-0-0h10h12--0
-0-0h10h12--0-0-15
G----------------------------------------------------------------
C--------------------------------
--------------------------------

guest
You may want to rate the tab now too:
select rating
Please do not post tabs as comments. Select "correction" instead!