Oops, an error
Loading. Please wait.
61,425 views 81 this week
15 commentsread comments
1 2 3 4 5
x 34
add to favorites
×
Save as Personal and add changes to this tab that will be seen only by you. Learn more ›
×
You can save this tab as Personal to edit and correct it or add notes. All changes will be seen only by you. Learn more »
launch autoscroll
font size
0
reset
how to read this tab
guitar tuner
edit
Autoscroll
slow
fast
+/-
esc
set tempo
stop
Author
Updated:strumming pattern shown, spaces repaired, everything sounds.


Fine again - Seether
guitar 1: (E A D G B e)
guitar 2: (E A D G B e)

Notes:
-just before chorus: last chord of verse is distorted.
-if nothing assigned for guitar 2 then play same as guitar 1.
- 12's in the outro are thirty-second notes(tremolo picking).


[Intro]

(both clean)

e|-------------------------------------------------------------------------------------|
B|-------------------------------------------------------------------------------------|
G|----------------------------------7-7---------------------------------------7-7------|
D|-----4--------7-----------2-------7-7----------4--------7-----------2-------7-7------|
A|---4--------7----x-x----2----x-x--5-5--------4--------7----x-x----2----x-x--5-5------|
E|-2-----2--5------x-x--0------x-x--5-5------2-----2--5------x-x--0------x-x--5-5------|
 |                                                                         |
e|-------4~-----4-4~-----4-5~~~~~~-----4---4-5~-----5-4~-----4-------------|
B|-7---7------5--------5-----------------5--------5--------5---7~~~~~~-----|
G|---6---------------------------------------------------------------------|
D|-------------------------------------------------------------------------|
A|-------------------------------------------------------------------------|
E|-------------------------------------------------------------------------|


[Verse]

(both clean)
e|---------------------------------------------------------------------------------------------------------|
B|---------------------------------------------------------------------------------------------------------|
G|-----------------------------------------7-7-------------------------------------------------7-7---------|
D|-4-4--x-x-x-x--7-7----x-x--2-2--x-x-x-x--7-7----x-x--4-4--x-x-x-x--7-7----x-x--2-2--x-x-x-x--7-7----x-x--|
A|-4-4--x-x-x-x--7-7----x-x--2-2--x-x-x-x--5-5----x-x--4-4--x-x-x-x--7-7----x-x--2-2--x-x-x-x--5-5----x-x--|
E|-2-2--x-x-x-x--5-5----x-x--0-0--x-x-x-x--5-5----x-x--2-2--x-x-x-x--5-5----x-x--0-0--x-x-x-x--5-5----x-x--|
 |                                                                                                         |
e|---------------------------------------------------------------------------------------------------------|
B|---------------------------------------------------------------------------------------------------------|
G|---------------------------------------------------------------------------------------------------------|
D|---------------------------------------------------------------------------------------------------------|
A|---------------------------------------------------------------------------------------------------------|
E|---------------------------------------------------------------------------------------------------------|
  "It seems like every day’s the same and I’m left to discover on my own"

e|---------------------------------------------------------------------------------------------------------|
B|---------------------------------------------------------------------------------------------------------|
G|-----------------------------------------7-7-------------------------------------------------7-7---------|
D|-4-4--x-x-x-x--7-7----x-x--2-2--x-x-x-x--7-7----x-x--4-4--x-x-x-x--7-7----x-x--2-2--x-x-x-x--7-7----x-x--|
A|-4-4--x-x-x-x--7-7----x-x--2-2--x-x-x-x--5-5----x-x--4-4--x-x-x-x--7-7----x-x--2-2--x-x-x-x--5-5----x-x--|
E|-2-2--x-x-x-x--5-5----x-x--0-0--x-x-x-x--5-5----x-x--2-2--x-x-x-x--5-5----x-x--0-0--x-x-x-x--5-5----x-x--|
 |                                                                                                         |
e|---------------------------------------------------------------------------------------------------------|
B|---------------------------------------------------------------------------------------------------------|
G|---------------------------------------------------------------------------------------------------------|
D|---------------------------------------------------------------------------------------------------------|
A|---------------------------------------------------------------------------------------------------------|
E|---------------------------------------------------------------------------------------------------------|
  "It seems like everything is gray and there’s no color to behold"


e|---------------------------------------------------------------------------------------------------------|
B|---------------------------------------------------------------------------------------------------------|
G|-----------------------------------------7-7-------------------------------------------------7-7---------|
D|-4-4--x-x-x-x--7-7----x-x--2-2--x-x-x-x--7-7----x-x--4-4--x-x-x-x--7-7----x-x--2-2--x-x-x-x--7-7----x-x--|
A|-4-4--x-x-x-x--7-7----x-x--2-2--x-x-x-x--5-5----x-x--4-4--x-x-x-x--7-7----x-x--2-2--x-x-x-x--5-5----x-x--|
E|-2-2--x-x-x-x--5-5----x-x--0-0--x-x-x-x--5-5----x-x--2-2--x-x-x-x--5-5----x-x--0-0--x-x-x-x--5-5----x-x--|
 |                                                                                                         |
e|---------------------------------------------------------------------------------------------------------|
B|--------14----------------------------------14-----------------------------------------------------------|
G|-----------------14----------------------------------14--------------------------------------------------|
D|---------------------------------------------------------------------------------------------------------|
A|---------------------------------------------------------------------------------------------------------|
E|---------------------------------------------------------------------------------------------------------|
  "They say it’s over and I’m fine again, yeah"

e|---------------------------------------------------------------------------------------------------------|
B|-------------------------------------------------------------------------------------------|DISTORTION>>>|
G|-----------------------------------------7-7-------------------------------------------------7-7---------|
D|-4-4--x-x-x-x--7-7----x-x--2-2--x-x-x-x--7-7----x-x--4-4--x-x-x-x--7-7----x-x--2-2--x-x-x-x--7-7----x-x--|
A|-4-4--x-x-x-x--7-7----x-x--2-2--x-x-x-x--5-5----x-x--4-4--x-x-x-x--7-7----x-x--2-2--x-x-x-x--5-5----x-x--|
E|-2-2--x-x-x-x--5-5----x-x--0-0--x-x-x-x--5-5----x-x--2-2--x-x-x-x--5-5----x-x--0-0--x-x-x-x--5-5----x-x--|
 |                                                                         |
e|-------4~-----4-4~-----4-5~~~~~~-----4---4-5~-----5-4~-----4-------------|
B|-7---7------5--------5-----------------5--------5--------5---7~~~~~~-----|
G|---6---------------------------------------------------------------------|
D|-------------------------------------------------------------------------|
A|-------------------------------------------------------------------------|
E|-------------------------------------------------------------------------|
  "Try to stay sober feels like I’m dying here"


[Chorus]

(both distorted) 
e|---------------------------------------------------------------------------------------------------------|
B|---------------------------------------------------------------------------------------------------------|
G|---------------7-7---------4-4-------------------------------------7-7---------4-4-----------------------|
D|-4-4--x-x-x-x--7-7----x-x--4-4--x-x-x-x--2-2----x-x--4-4--x-x-x-x--7-7----x-x--4-4--x-x-x-x--2-2----x-x--|
A|-4-4--x-x-x-x--5-5----x-x--2-2--x-x-x-x--2-2----x-x--4-4--x-x-x-x--5-5----x-x--2-2--x-x-x-x--2-2----x-x--|
E|-2-2--x-x-x-x--5-5----x-x--2-2--x-x-x-x--0-0----x-x--2-2--x-x-x-x--5-5----x-x--2-2--x-x-x-x--0-0----x-x--|
 |                                                                                                         |
e|---------------------------------------------------------------------------------------------------------|
B|---------------------------------------------------------------------------------------------------------|
G|---------------------------------------------------------------------------------------------------------|
D|---------------------------------------------------------------------------------------------------------|
A|---------------------------------------------------------------------------------------------------------|
E|---------------------------------------------------------------------------------------------------------|
  "And I am aware now of how everything’s gonna be fine one day Too late,
    I’m in hell"

e|---------------------------------------------------------------------------------------------------------|
B|---------------------------------------------------------------------------------------------------------|
G|---------------7-7---------4-4-------------------------------------7-7---------4-4-----------------------|
D|-4-4--x-x-x-x--7-7----x-x--4-4--x-x-x-x--2-2----x-x--4-4--x-x-x-x--7-7----x-x--4-4--x-x-x-x--2-2----x-x--|
A|-4-4--x-x-x-x--5-5----x-x--2-2--x-x-x-x--2-2----x-x--4-4--x-x-x-x--5-5----x-x--2-2--x-x-x-x--2-2----x-x--|
E|-2-2--x-x-x-x--5-5----x-x--2-2--x-x-x-x--0-0----x-x--2-2--x-x-x-x--5-5----x-x--2-2--x-x-x-x--0-0----x-x--|
 |                                                                                                         |
e|---------------------------------------------------------------------------------------------------------|
B|---------------------------------------------------------------------------------------------------------|
G|---------------------------------------------------------------------------------------------------------|
D|---------------------------------------------------------------------------------------------------------|
A|---------------------------------------------------------------------------------------------------------|
E|---------------------------------------------------------------------------------------------------------|
  "I  am prepared now, seems everyone’s gonna be fine one day too late,
    just as well"


[Verse 2]

(both clean)

e|-------------------------------------------------------------------------------------------------|
B|-------------------------------------------------------------------------------------------------|
G|----------------------------------7-7------------------------------------------------7-7---------|
D|-----4--------7-----------2-------7-7------4-4--x-x-x-x--7-7--x-x-x-x--2-2--x-x-x-x--7-7----x-x--|
A|---4--------7----x-x----2----x-x--5-5------4-4--x-x-x-x--7-7--x-x-x-x--2-2--x-x-x-x--5-5----x-x--|
E|-2-----2--5------x-x--0------x-x--5-5------2-2--x-x-x-x--5-5--x-x-x-x--0-0--x-x-x-x--5-5----x-x--|
 |                                                                                                 |
e|-------------------------------------------------------------------------------------------------|
B|-------------------------------------------------------------------------------------------------|
G|-------------------------------------------------------------------------------------------------|
D|-------------------------------------------------------------------------------------------------|
A|-------------------------------------------------------------------------------------------------|
E|-------------------------------------------------------------------------------------------------|
  "I feel the dream in me expire and there’s no one left to blame it on"

e|---------------------------------------------------------------------------------------------------------|
B|---------------------------------------------------------------------------------------------------------|
G|-----------------------------------------7-7-------------------------------------------------7-7---------|
D|-4-4--x-x-x-x--7-7----x-x--2-2--x-x-x-x--7-7----x-x--4-4--x-x-x-x--7-7----x-x--2-2--x-x-x-x--7-7----x-x--|
A|-4-4--x-x-x-x--7-7----x-x--2-2--x-x-x-x--5-5----x-x--4-4--x-x-x-x--7-7----x-x--2-2--x-x-x-x--5-5----x-x--|
E|-2-2--x-x-x-x--5-5----x-x--0-0--x-x-x-x--5-5----x-x--2-2--x-x-x-x--5-5----x-x--0-0--x-x-x-x--5-5----x-x--|
 |                                                                         |
e|-------------------------------------------4~-----4-4~-----4-5~~~~~~-----|
B|-------------------------------------7---7------5--------5---------------|
G|---------------------------------------6---------------------------------|
D|-------------------------------------------------------------------------|
A|-------------------------------------------------------------------------|
E|-------------------------------------------------------------------------|
  "I hear you label me a liar ‘cause I can’t seem to get this through"

e|---------------------------------------------------------------------------------------------------------|
B|---------------------------------------------------------------------------------------------------------|
G|-----------------------------------------7-7-------------------------------------------------7-7---------|
D|-4-4--x-x-x-x--7-7----x-x--2-2--x-x-x-x--7-7----x-x--4-4--x-x-x-x--7-7----x-x--2-2--x-x-x-x--7-7----x-x--|
A|-4-4--x-x-x-x--7-7----x-x--2-2--x-x-x-x--5-5----x-x--4-4--x-x-x-x--7-7----x-x--2-2--x-x-x-x--5-5----x-x--|
E|-2-2--x-x-x-x--5-5----x-x--0-0--x-x-x-x--5-5----x-x--2-2--x-x-x-x--5-5----x-x--0-0--x-x-x-x--5-5----x-x--|
 |                                                                         |
e|-------------------------------------------------------------------------|
B|--------14----------------------------------14---------------------------|
G|-----------------14----------------------------------14------------------|
D|-------------------------------------------------------------------------|
A|-------------------------------------------------------------------------|
E|-------------------------------------------------------------------------|
  "You say it’s over, I can sigh again, yeah"

e|---------------------------------------------------------------------------------------------------------|
B|-------------------------------------------------------------------------------------------|DISTORTION>>>|
G|-----------------------------------------7-7-------------------------------------------------7-7---------|
D|-4-4--x-x-x-x--7-7----x-x--2-2--x-x-x-x--7-7----x-x--4-4--x-x-x-x--7-7----x-x--2-2--x-x-x-x--7-7----x-x--|
A|-4-4--x-x-x-x--7-7----x-x--2-2--x-x-x-x--5-5----x-x--4-4--x-x-x-x--7-7----x-x--2-2--x-x-x-x--5-5----x-x--|
E|-2-2--x-x-x-x--5-5----x-x--0-0--x-x-x-x--5-5----x-x--2-2--x-x-x-x--5-5----x-x--0-0--x-x-x-x--5-5----x-x--|
 |                                                                         |
e|-------4~-----4-4~-----4-5~~~~~~-----4---4-5~-----5-4~-----4-------------|
B|-7---7------5--------5-----------------5--------5--------5---7~~~~~~-----|
G|---6---------------------------------------------------------------------|
D|-------------------------------------------------------------------------|
A|-------------------------------------------------------------------------|
E|-------------------------------------------------------------------------|
  "Why try to stay sober when I’m dying here"


[Chorus 2]

(both distorted) 
e|---------------------------------------------------------------------------------------------------------|
B|---------------------------------------------------------------------------------------------------------|
G|---------------7-7---------4-4-------------------------------------7-7---------4-4-----------------------|
D|-4-4--x-x-x-x--7-7----x-x--4-4--x-x-x-x--2-2----x-x--4-4--x-x-x-x--7-7----x-x--4-4--x-x-x-x--2-2----x-x--|
A|-4-4--x-x-x-x--5-5----x-x--2-2--x-x-x-x--2-2----x-x--4-4--x-x-x-x--5-5----x-x--2-2--x-x-x-x--2-2----x-x--|
E|-2-2--x-x-x-x--5-5----x-x--2-2--x-x-x-x--0-0----x-x--2-2--x-x-x-x--5-5----x-x--2-2--x-x-x-x--0-0----x-x--|
 |                                                                                                         |
e|---------------------------------------------------------------------------------------------------------|
B|---------------------------------------------------------------------------------------------------------|
G|---------------------------------------------------------------------------------------------------------|
D|---------------------------------------------------------------------------------------------------------|
A|---------------------------------------------------------------------------------------------------------|
E|---------------------------------------------------------------------------------------------------------|
  "And I am aware now of how everything’s gonna be fine one day Too late,
    I’m in hell"

e|---------------------------------------------------------------------------------------------------------|
B|---------------------------------------------------------------------------------------------------------|
G|---------------7-7---------4-4-------------------------------------7-7---------4-4-----------------------|
D|-4-4--x-x-x-x--7-7----x-x--4-4--x-x-x-x--2-2----x-x--4-4--x-x-x-x--7-7----x-x--4-4--x-x-x-x--2-2----x-x--|
A|-4-4--x-x-x-x--5-5----x-x--2-2--x-x-x-x--2-2----x-x--4-4--x-x-x-x--5-5----x-x--2-2--x-x-x-x--2-2----x-x--|
E|-2-2--x-x-x-x--5-5----x-x--2-2--x-x-x-x--0-0----x-x--2-2--x-x-x-x--5-5----x-x--2-2--x-x-x-x--0-0----x-x--|
 |                                                                                                         |
e|---------------------------------------------------------------------------------------------------------|
B|---------------------------------------------------------------------------------------------------------|
G|---------------------------------------------------------------------------------------------------------|
D|---------------------------------------------------------------------------------------------------------|
A|---------------------------------------------------------------------------------------------------------|
E|---------------------------------------------------------------------------------------------------------|
  "I  am prepared now, seems everyone’s gonna be fine One day too late,
    just as well"


[Bridge]

(both distorted)

e|-------------------------------------------------------------------------|
B|-------------------------------------------------------------------------|
G|-------------------------------------------------------------------------|
D|-------------------------------------------------------------------------|
A|-5~~~~~~~~~~~~5\2~~~~~~~~~~~~2/5~~~~~~~~~~~~5\2~~~~~~~~~~~~2/5~~~~~~~~~~~|
E|-------------------------------------------------------------------------|
 |                                                                         |
e|-------------------------------------------------------------------------|
B|-------------------------------------------------------------------------|
G|-------------------------------------------------------------------------|
D|-------------------------------------------------------------------------|
A|-------------------------------------------------------------------------|
E|-------------------------------------------------------------------------|
  "And I’m not scared now. I must assure you, you're never gonna get away"

e|-------------------------------------------------------------------------|
B|-------------------------------------------------------------------------|
G|-------------------------------------------------------------------------|
D|---------------------------------vPM-------------------------------------|
A|~5\2~~~~~~~~~~~~2/5~~~~~~~~~~~~5-2~--------------------------------------|
E|---------------------------------0~--------------------------------------|
 |                                                                         |
e|-------------------------------------------------------------------------|
B|-------------------------------------------------------------------------|
G|-------------------------------------------------------------------------|
D|-------------------------------------------------------------------------|
A|-------------------------------------------------------------------------|
E|-------------------------------------------------------------------------|
  "And I’m not scared now. And I’m not scared now. No… "


[Chorus]

(both distorted)

e|---------------------------------------------------------------------------------------------------------|
B|---------------------------------------------------------------------------------------------------------|
G|---------------7-7---------4-4-------------------------------------7-7---------4-4-----------------------|
D|-4-4--x-x-x-x--7-7----x-x--4-4--x-x-x-x--2-2----x-x--4-4--x-x-x-x--7-7----x-x--4-4--x-x-x-x--2-2----x-x--|
A|-4-4--x-x-x-x--5-5----x-x--2-2--x-x-x-x--2-2----x-x--4-4--x-x-x-x--5-5----x-x--2-2--x-x-x-x--2-2----x-x--|
E|-2-2--x-x-x-x--5-5----x-x--2-2--x-x-x-x--0-0----x-x--2-2--x-x-x-x--5-5----x-x--2-2--x-x-x-x--0-0----x-x--|
 |                                                                         |
e|-9---10---9---10---9---10---9---10---9---10---9---10---9---10---9---10---|
B|---10--10---10--10---10--10---10--10---10--10---10--10---10--10---10--10-|
G|-------------------------------------------------------------------------|
D|-------------------------------------------------------------------------|
A|-------------------------------------------------------------------------|
E|-------------------------------------------------------------------------|


e|---------------------------------------------------------------------------------------------------------|
B|---------------------------------------------------------------------------------------------------------|
G|---------------7-7---------4-4-------------------------------------7-7---------4-4-----------------------|
D|-4-4--x-x-x-x--7-7----x-x--4-4--x-x-x-x--2-2----x-x--4-4--x-x-x-x--7-7----x-x--4-4--x-x-x-x--2-2----x-x--|
A|-4-4--x-x-x-x--5-5----x-x--2-2--x-x-x-x--2-2----x-x--4-4--x-x-x-x--5-5----x-x--2-2--x-x-x-x--2-2----x-x--|
E|-2-2--x-x-x-x--5-5----x-x--2-2--x-x-x-x--0-0----x-x--2-2--x-x-x-x--5-5----x-x--2-2--x-x-x-x--0-0----x-x--|
 |                                                                         |
e|-9---10---9---10---9---10---9---10---9---10---9---10---9---10---12--10---|
B|---10--10---10--10---10--10---10--10---10--10---10--10---10--10---10--10-|
G|-------------------------------------------------------------------------|
D|-------------------------------------------------------------------------|
A|-------------------------------------------------------------------------|
E|-------------------------------------------------------------------------|
  "I  am aware now of how everything’s gonna be fine one day Too late,
    I’m in hell"

e|---------------------------------------------------------------------------------------------------------|
B|---------------------------------------------------------------------------------------------------------|
G|---------------7-7---------4-4-------------------------------------7-7---------4-4-----------------------|
D|-4-4--x-x-x-x--7-7----x-x--4-4--x-x-x-x--2-2----x-x--4-4--x-x-x-x--7-7----x-x--4-4--x-x-x-x--2-2----x-x--|
A|-4-4--x-x-x-x--5-5----x-x--2-2--x-x-x-x--2-2----x-x--4-4--x-x-x-x--5-5----x-x--2-2--x-x-x-x--2-2----x-x--|
E|-2-2--x-x-x-x--5-5----x-x--2-2--x-x-x-x--0-0----x-x--2-2--x-x-x-x--5-5----x-x--2-2--x-x-x-x--0-0----x-x--|
 |                                                                         |
e|-9---10---9---10---9---10---9---10---9---10---9---10---9---10---12--10---|
B|---10--10---10--10---10--10---10--10---10--10---10--10---10--10---10--10-|
G|-------------------------------------------------------------------------|
D|-------------------------------------------------------------------------|
A|-------------------------------------------------------------------------|
E|-------------------------------------------------------------------------|
  "I  am prepared now seems everyone’s gonna be fine One day too late,
    just as well"

e|---------------------------------------------------------------------------------------------------------|
B|---------------------------------------------------------------------------------------------------------|
G|---------------7-7---------4-4-------------------------------------7-7---------4-4-----------------------|
D|-4-4--x-x-x-x--7-7----x-x--4-4--x-x-x-x--2-2----x-x--4-4--x-x-x-x--7-7----x-x--4-4--x-x-x-x--2-2----x-x--|
A|-4-4--x-x-x-x--5-5----x-x--2-2--x-x-x-x--2-2----x-x--4-4--x-x-x-x--5-5----x-x--2-2--x-x-x-x--2-2----x-x--|
E|-2-2--x-x-x-x--5-5----x-x--2-2--x-x-x-x--0-0----x-x--2-2--x-x-x-x--5-5----x-x--2-2--x-x-x-x--0-0----x-x--|
 |                                                                         |
e|-9---10---12--10---9---10---12--10---9---10---12--10---9---10---12--10---|
B|---10--10---10--10---10--10---10--10---10--10---10--10---10--10---10--10-|
G|-------------------------------------------------------------------------|
D|-------------------------------------------------------------------------|
A|-------------------------------------------------------------------------|
E|-------------------------------------------------------------------------|
  "I am prepared now, seems everything's gonna be fine for me For me;
    for myself"

e|---------------------------------------------------------------------------------------------------------|
B|---------------------------------------------------------------------------------------------------------|
G|---------------7-7---------4-4-------------------------------------7-7---------4-4-----------------------|
D|-4-4--x-x-x-x--7-7----x-x--4-4--x-x-x-x--2-2----x-x--4-4--x-x-x-x--7-7----x-x--4-4--x-x-x-x--2-2----x-x--|
A|-4-4--x-x-x-x--5-5----x-x--2-2--x-x-x-x--2-2----x-x--4-4--x-x-x-x--5-5----x-x--2-2--x-x-x-x--2-2----x-x--|
E|-2-2--x-x-x-x--5-5----x-x--2-2--x-x-x-x--0-0----x-x--2-2--x-x-x-x--5-5----x-x--2-2--x-x-x-x--0-0----x-x--|
 |                                                                         |
e|-9---10---9---10---9---10---12--10---9---10---9---10---9---10---12--10---|
B|---10--10---10--10---10--10---10--10---10--10---10--10---10--10---10--10-|
G|-------------------------------------------------------------------------|
D|-------------------------------------------------------------------------|
A|-------------------------------------------------------------------------|
E|-------------------------------------------------------------------------|
  "For me, for me, for myself, For me, for me, for myself"

e|------------------------------------------------------------------------------------------------------|
B|------------------------------------------------------------------------------------------------------|
G|---------------------------------------7-7------4-4------------------------7-7------4-4---------------|
D|-4-4--x-x-x-x--7-7----x-x--4-4--x-x-x-x--2-2----x-x--4-4--x-x-x-x--7-7----x-x--4-4--x-x-x-x--2-2-4~---|
A|-4-4--x-x-x-x--5-5----x-x--2-2--x-x-x-x--2-2----x-x--4-4--x-x-x-x--5-5----x-x--2-2--x-x-x-x--2-2-4~---|
E|-2-2--x-x-x-x--5-5----x-x--2-2--x-x-x-x--0-0----x-x--2-2--x-x-x-x--5-5----x-x--2-2--x-x-x-x--0-0-2~---|
 |                                                                         |
e|-12-12-12-12-12-12-12-12-12-12-12-12-12-12-12-12-12-12-12-12-12-12--9~~~-|
B|-------------------------------------------------------------------------|
G|-----More than this number of 12's is played-----------------------------|
D|------(Tremolo pick the 12's)--------------------------------------------|
A|-------------------------------------------------------------------------|
E|-------------------------------------------------------------------------|
  "I  am prepared now for myself I am prepared now, and I am fine again"

************************************

~-hold note
/-slide
x-dead note
*-harmonic
PM-palm mute

************************************

            
            
Suggest correction
Creating personal tab
Creating personal tab
You can edit any tab online and save it as your Personal.

You can edit, replace or remove any tab part or add personal notes – all changes will be seen only by you.

Personal tabs can be accessed anytime from any device, even offline.
Learn more »
comments
print report bad tab
15 comments total. Showing first comments.
+2 reply
rageahol 30 Nov 04, 2011 11:36 AM

Completely accurate. 100% 5 stars.

0 reply
Conor_man11 30 Nov 10, 2011 12:22 PM

Very good tab, sounds great. There is an easier way to play some of the chords though.

e|------------------------------------------------------------------------|
B|------------------------------------------------------------------------|
G|---------------------------7-7---------------------------------7-7------|
D|-----4-------7--------2----7-7-----------4-------7--------2----7-7------|
A|---4-------7---xx---2---xx-5-5---------4-------7---xx---2---xx-5-5------|
E|-2-----2-5-----xx-0-----xx-5-5-------2-----2-5-----xx-0-----xx-5-5------|

+3 reply
Conor_man11 30 Nov 10, 2011 12:28 PM

Messed up the last comment...
The intro is easier played like this:

e|------------------------------------------------------------------------|
B|---------------------------------------------------------------3-3-----|
G|---------------------------7-7---------------------------------2-2------|
D|-----4-------7--------2----7-7-----------4-------7--------2----0-0------|
A|---4-------7---xx---2---xx-5-5---------4-------7---xx---2---xx-0-0------|
E|-2-----2-5-----xx-0-----xx-5-5-------2-----2-5-----xx-0-----xx----------|


And the verse/chorus chords like this:
e|------------------------------------------------------------------------|
B|-----------------------------3------------------------------------3-----|
G|-----------2----------------2-------------------2---------------2-------|
D|-4--------2--------2--------0--------4--------0--------2--------0-------|
A|-4--------0--------2--------0--------4--------0--------2--------0-------|
E|-2-----------------0-----------------2-----------------0----------------|

Moving up a string and playing the same chords makes for less hand movement up the fretboard.

guest
You may want to rate the tab now too:
select rating
Wanna post a correction for this tab? Suggest correction