Oops, an error
Loading. Please wait.

Fmlyhm Bass Tab

version 1
version 1

Whole song

Interactive

2,206 views 1 this week
no commentswrite comment
1 2 3 4 5
please rate
add to favorites
launch autoscroll
font size
0
reset
guitar tuner
Tab Pro tools
  • play this tab
  • loop segment
  • change instrument
  • show fretboard
  • metronome
×
Best way to learn
"Fmlyhm"
Autoscroll
slow
fast
+/-
esc
set tempo
stop
============================================================================
Song: FMLYHM by Seether

Tuning: Well it was recorded in Drop-C for those that use 4 string bass's
but I use 5 and 6 string bass's. So I'll be tabing it for the 5-string, but
I'll tab it in 4-string verson in this also so it'll be 2 different tabs
but same song.

Note's: This tab will not be perfect should be around 95% accurate, all the
notes should be there to get you going in the right direction.
============================================================================
Bass starts at 0:05
  Intro/Verse
G|---------------------------------------------|(6x's)
D|---------------------------------------------|
A|---------------------------------------------|
E|-5-5-5-5-8-7-5-3-5-7-5-5-5-5-5-8-7-5-3-5-7-5-|
B|---------------------------------------------|

  Pre:Chorus
G|---------------------------------------------------------------------|
D|---------------------------------------------------------------------|
A|---------------------------------------------------------------------|
E|-5-5-5-5-5-5-5-5-8-8-8-8-8-8-8-8-5-5-5-5-5-5-5-5-8-8-8-8-10-10-10-10-|
B|---------------------------------------------------------------------|

  Chorus
G|---------------------------------|(4x's)
D|---------------------------------|
A|---------------------------------|
E|-5-5-5-5-8-8-8-8-----------------|
B|-----------------6-6-6-6-3-3-6-3-|

  Intro/Verse
G|---------------------------------------------|(6x's)
D|---------------------------------------------|
A|---------------------------------------------|
E|-5-5-5-5-8-7-5-3-5-7-5-5-5-5-5-8-7-5-3-5-7-5-|
B|---------------------------------------------|

  Pre:Chorus
G|---------------------------------------------------------------------|
D|---------------------------------------------------------------------|
A|---------------------------------------------------------------------|
E|-5-5-5-5-5-5-5-5-8-8-8-8-8-8-8-8-5-5-5-5-5-5-5-5-8-8-8-8-10-10-10-10-|
B|---------------------------------------------------------------------|

  Chorus
G|---------------------------------|(4x's)
D|---------------------------------|
A|---------------------------------|
E|-5-5-5-5-8-8-8-8-----------------|
B|-----------------6-6-6-6-3-3-6-3-|

  Bridge
G|---------------------------|(2x's)
D|---------------------------|
A|---------------------------|
E|-8-7-5-3-7-5-8-7-5-3-8-7-5-|
B|---------------------------|

  Breakdown No Bass

  Pre:Chorus
G|---------------------------------------------------------------------|
D|---------------------------------------------------------------------|
A|---------------------------------------------------------------------|
E|-5-5-5-5-5-5-5-5-8-8-8-8-8-8-8-8-5-5-5-5-5-5-5-5-8-8-8-8-10-10-10-10-|
B|---------------------------------------------------------------------|

  Chorus
G|---------------------------------|(8x's)
D|---------------------------------|
A|---------------------------------|
E|-5-5-5-5-8-8-8-8-----------------|
B|-----------------6-6-6-6-3-3-6-3-|

===========================================================================
  Drop-C Version
  Intro/Verse
F|-------------------------------------------------|(6x's)
C|-------------------------------------------------|
G|-2-2-2-2-2-2-2-2-5-4-2-0-4-2-2-2-2-2-5-4-2-0-4-2-|
C|-------------------------------------------------|

  Pre:Chorus
F|-----------------------------------------------------------------|
C|-----------------------------------------------------------------|
G|-2-2-2-2-2-2-2-2-5-5-5-5-5-5-5-5-2-2-2-2-2-2-2-2-5-5-5-5-7-7-7-7-|
C|-----------------------------------------------------------------|

  Chorus
F|---------------------------------|(4x's)
C|---------------------------------|
G|-2-2-2-2-5-5-5-5-----------------|
C|-----------------5-5-5-5-2-2-5-2-|

  Intro/Verse
F|-------------------------------------------------|(6x's)
C|-------------------------------------------------|
G|-2-2-2-2-2-2-2-2-5-4-2-0-4-2-2-2-2-2-5-4-2-0-4-2-|
C|-------------------------------------------------|

  Pre:Chorus
F|-----------------------------------------------------------------|
C|-----------------------------------------------------------------|
G|-2-2-2-2-2-2-2-2-5-5-5-5-5-5-5-5-2-2-2-2-2-2-2-2-5-5-5-5-7-7-7-7-|
C|-----------------------------------------------------------------|

  Chorus
F|---------------------------------|(4x's)
C|---------------------------------|
G|-2-2-2-2-5-5-5-5-----------------|
C|-----------------5-5-5-5-2-2-5-2-|

  Bridge
F|-----------------------------|(2x's)
C|-----------------------------|
G|-----------------------------|
C|-5-4-2-0-4-2-5-4-2-0-2-5-4-2-|

  Breakdown No Bass

  Pre:Chorus
F|-----------------------------------------------------------------|
C|-----------------------------------------------------------------|
G|-2-2-2-2-2-2-2-2-5-5-5-5-5-5-5-5-2-2-2-2-2-2-2-2-5-5-5-5-7-7-7-7-|
C|-----------------------------------------------------------------|

  Chorus
F|---------------------------------|(8x's)
C|---------------------------------|
G|-2-2-2-2-5-5-5-5-----------------|
C|-----------------5-5-5-5-2-2-5-2-|
===========================================================================
comments
We did not receive enough feedback on this tab! Please rate:
print report bad tab
1 2 3 4 5
I want to post or [tab]
guest
You may want to rate the tab now too:
select rating
Please do not post tabs as comments. Select "correction" instead!