Oops, an error
Loading. Please wait.

Fur Cue Tab

9,312 views 30 this week
3 commentsread comments
1 2 3 4 5
excellent!
x 5
add to favorites
launch autoscroll
font size
0
reset
how to read this tab
guitar tuner
Tab Pro tools
  • play this tab
  • loop segment
  • change instrument
  • show fretboard
  • metronome
Autoscroll
slow
fast
+/-
esc
set tempo
stop
Contributor
Difficulty
Tuning
intermediate
C G C F A D
Artist: Seether
Song: Fur Cue
Album: Holding Onto Strings Better Left To Fray
Tabbed By: Subhadip Mondal (DeepRocks2011)
Tuning: Dropped C (C G C F A D)


MAIN RIFF :

D|----------------------------------|
A|----------------------------------|
F|----------------------------------|
C|---2h3p2--0h2-2--0h2--2--0h2--2---|
G|---2h3p2--0h2-2--0h2--2--0h2--2---|
C|---2h3p2--0h2-2--0h2--2--0h2--2---|


D|----------------------------------|
A|----------------------------------|
F|----------------------------------|
C|---2h3p2--0h2-2--0h2--2-----------|
G|---2h3p2--0h2-2--0h2--2-----------|
C|---2h3p2--0h2-2--0h2--2\14--------| ...... x2


LEAD PART :

D|------------------------------------------------------------------|
A|------------------------------------------5b------4h5p4---7h8p7---|
F|-------------------------------7---7/5/4----4---------------------|
C|---7\9---7-9-9---7-9-10---9-10------------------------------------|
G|------------------------------------------------------------------|
C|------------------------------------------------------------------|


HARMONICS :

D|------(5)---|
A|------(5)---|
F|------(5)---|
C|------------|
G|---0--------|
C|---0--------|
**Play the open strings palm muted**



PRE CHORUS :

D|-----------------------------|
A|-----------------------------|
F|-----------------------------|
C|-----------------------------|
G|-----------------------------|
C|---0-2--2--0-2--2--2---3-2---|
**Play this first, second and fourth time**


D|---------------------------------|
A|---------------------------------|
F|---------------------------------|
C|---0-----------------------------|
G|---0-----------------------------|
C|---0---0-2--2--0-2--2--2---3-2---|
**Third time play this**


CHORUS :

D|---------------------------------------------------|
A|---------------------1---1---3---------------------|
F|---------------------0---2---2---------------------|
C|---5---5---7---3-2---2---2---0---3-3-x-x-2-2-x-x---|
G|---3---5---7---3-2---3---0---0---3-3-x-x-2-2-x-x---|
C|-------5---7---3-2---------------3-3-x-x-2-2-x-x---|
                                 **Play this part in the rhythm,
                            listen to the song for the right timing**

BRIDGE :

D|-----------------------------|
A|-----------------------------|
F|-----------------------------|
C|---8--7--5----2---2---0------|
G|---8--7--5----2---2---0------|
C|---8--7--5----2---2---0------| ...... x3


D|-----------------------------|
A|-----------------------------|
F|-----------------------------|
C|---3--3--3--5--5---0--2------|
G|---3--3--3--5--5---0--2------|
C|---3--3--3--5--5---0--2------|


() Harmonics
X  Muted
\  Front Slide
/  Back Slide
p  Pull Off
h  Hammer on
b  Bend


I'm not giving the whole song in proper order.I'm just giving the different parts of the 
song.Listen to the song to arrange it.

In the CHORUS portion, I have just given the chords, figure out the timing, it won't be 
that difficult.

For additional help, check out my video of this song "Seether's Fur Cue Cover (With 
Tabs)" in YouTube.Hope you'll like it.

My YouTube Channel : user/DeepRocks2011
comments
print report bad tab
3 comments total.
0 reply
DeepRocks2011 wrote on July 7 2011, 02:08 pm

Watch this : http://www.youtube.com/watch?v=QGOU0LpBCjs

0 reply
Kioftes17 wrote on March 21 2013, 06:51 am

correct tabs! thank you

0 reply
Daughtryfan497 wrote on June 8 2015, 09:37 am

G /4 2 4 5 4 7 5h7p5 4/9 4 8h11p8 11h14p11 /9

I want to post or [tab]
guest
You may want to rate the tab now too:
select rating
Please do not post tabs as comments. Select "correction" instead!