Oops, an error
Loading. Please wait.

Gasoline Tab

version 1
version 1

Interactive

91,342 views 117 this week
2 commentsread comments
1 2 3 4 5
x 14
add to favorites
launch autoscroll
font size
0
reset
how to read this tab
guitar tuner
Autoscroll
slow
fast
+/-
esc
set tempo
stop
Help us to improve Ultimate-Guitar.com Take our survey!
×
Tuning
D# G# C# F# A# D#
Artist: Seether
Song:   Gasoline
Tuning: Standard tuning dropped half a step to Eb
Tabbed by:  Jeremy

[Intro]         Guitars 1 and 2 play together 3 times
Eb|------------------------------------------------------------------12-12-12--|
Bb|------------------------------------------------------------------12-12-12--|
Gb|------------------------------------------------------------------12-12-12--|
Db|----2-2-x-x--x--x--x--x-x-x-----------2-2-x-x--x--x--x----------------------|
Ab|----2-2-x-x--x--x--x--x-x-x-----------2-2-x-x--x--x--x----------------------|
Eb|----0-0-x-x--x--x--x--x-x-x-----------0-0-x-x--x--x--x----------------------|

[Verse Riff] Guitar 1
                                        3x                              Last time
Eb|----------------------------------------------------------------------------|
Bb|----------------------------------------------------------------------------|
Gb|-----------9-9--7-7/10--10------------------------------9-9--7-7/12-12-12---|
Db|----2-2-x----------------------------------------2-2-x----------------------|
Ab|----2-2-x--7-7--5-5/8---8------------------------2-2-x--7-7--5-5/10-10-10---|
Eb|----0-0-x----------------------------------------0-0-x----------------------|

[Verse Riff] Guitar 2
                                        3x                              Last time
Eb|----------------------------------------------------------------------------|
Bb|----------------------------------------------------------------------------|
Gb|-----------------------------------------------------------0-0h3p0-7--------|
Db|----2-2-x-x---------------------------------------2-2-x-x----------5--------|
Ab|----2-2-x-x---------------------------------------2-2-x-x-------------------|
Eb|----0-0-x-x---------------------------------------0-0-x-x-------------------|

The guitar part under the vocals is pretty self explanatory, with the second
half being the same as the intro... Then...

[Chorus] Guitars 1 and 2.
Eb|----------------------------------------------------------------------------|
Bb|----------------------------------------------------------------------------|
Gb|------------5/7--7--7-------------------------------------------------------|
Db|----2-x-----5/7--7--7--0---5--5--5--5---------------------------------------|
Ab|----2-x-0---3/5--5--5--0---5--5--5--5---------------------------------------|
Eb|----0-x-0---3/5--5--5--0---3--3--3--3---------------------------------------|

Repeat whole process...Then...

[Bridge] Guitars 1 and 2.
Eb|----------------------------------------------------------------------------|
Bb|----------------------------------------------------------------------------|
Gb|----------------------------------------------------------------------------|
Db|----2-x-0-7\6--6-6\5--5-5\4-4\3-3\2-----------------------------------------|
Ab|----2-x-0-5\4--4-4\3--3-3\2-2\1-1\0-----------------------------------------|
Eb|----0-x-0-5\4--4-4\3--3-3\2-2\1-1\0-----------------------------------------|

[Bridge] Guitars 1 and 2 - one guitar part has a wah wah effect on it, along
with some chorus
Eb|----------------------------------------------------------------------------|
Bb|----------------------------------------------------------------------------|
Gb|-9-9-9-9-9-9-9-9-9-9-9-9-9-9-9-9-9-9-9-9-9-9-9-9-9-9-9-9-9-7-7-7------------|
Db|----------------------------------------------------------------------------|
Ab|----------------------------------------------------------------------------|
Eb|----------------------------------------------------------------------------|

Repeat Chorus twice and end the song this…
Eb|-------------------------------------------------------------------------------|
Bb|-------------------------------------------------------------------------------|
Gb|---------------------7-5-----------------------7-7-----------------------------|
Db|---2-2-x-x--x--x--x--7-5---2-2--x--x--x--x--x--7-7-----------------------------|
Ab|---2-2-x-x--x--x--x--5-3—--2-2--x--x--x--x--x--5-5-----------------------------|
Eb|---0-0-x-x--x--x--x--5-3—--0-0--x--x--x--x--x--5-5-----------------------------|

************************************

| x  Dead note
| h  Hammer-on
| p  Pull-off
| b  Bend
| /  Slide up
| \  Slide down

************************************
Suggest correction
comments
print report bad tab
2 comments total.
0 reply
Conor_man11 30 Apr 19, 2008 05:49 AM

The song is drop D. There is another tab here that is correctly tabbed in Drop D.

+2 reply
jstierman 31 Jan 02, 2010 04:46 PM

I disagree, this is the right tuning IMO. You can definitely hear the 5ths in the bass for the bridge, which you can not do as easily in Drop D. Also, if you are in Drop D, the x-x-x parts in the verse will sound "too nice" since they are a muted power chord. In half-step, they are dissident as it should be.

But it works in half-step, drop d, or drop d + 1/2 step if you are putting it in a set list!

guest
You may want to rate the tab now too:
select rating
Wanna post a correction for this tab? Suggest correction