Oops, an error
Loading. Please wait.

Gasoline Bass Tab

version 2
version 2

Whole song

Interactive

5,163 views 6 this week
no commentswrite comment
1 2 3 4 5
accurate
x 3
add to favorites
launch autoscroll
font size
0
reset
guitar tuner
Autoscroll
slow
fast
+/-
esc
set tempo
stop
Help us to improve Ultimate-Guitar.com Take our survey!
×
Author
Difficulty
intermediate
Tabbed By Jamie Harris
Tuning : 1/2 step down (Eb, Ab, Db, Gb)
Tabbed from One Cold Night Live acoustic DVD

After two rounds of guitar
---------------|
---------------|
---------------|
-0--0---0/12\0-|

Intro + Verse
------------|
------------|
------------|
-0/12--0/12-| x 4 for intro
             x 8 during verse

Chorus
-----------------|
-----------------|
-----3h5-5-5-----|
-0-0---------3-3-| x 4

Then Intro + Verse part again

Interlude
--------------------------|
--------------------------|
------5\4-4-4\3-3-3\2-2-1-|
-0-00---------------------| x 8

Then verse part x 4
Chorus x 8

Outro
----------------     ------|
----------------     ------|
----------------     ------|
-0--0-xx-x-x-xx- x 4 -0--0-|

/ = slide up

\ = slide down

h = hammer on
Suggest correction
Give kudos to tab author, rate the tab!
1 2 3 4 5
comments
print report bad tab
guest
You may want to rate the tab now too:
select rating
Please do not post tabs as comments. Select "correction" instead!