Oops, an error
Loading. Please wait.

Gasoline Tab

version 6
version 6

Interactive

625 views 1 this week
no commentswrite comment
1 2 3 4 5
3 more votes to show rating
add to favorites
launch autoscroll
font size
0
reset
how to read this tab
guitar tuner
Autoscroll
slow
fast
+/-
esc
set tempo
stop
Help us to improve Ultimate-Guitar.com Take our survey!
×
Author
Difficulty
Tuning
intermediate
D# G# C# F# A# D#
            Well it took me a while but
         I finally finished. It was a bit     
         tougher than I thought it would be
         to tab this out by ear. But I did it!
         This tab should be 99.9% accurate if not
         100% accurate. Have at her! :)




Eb--------------------------|
Bb--------------------------|
Gb--------------------------|
Db--------------------------|
Ab---x--2-2---x-x--x-x-x-x--|
Eb---x--0-0---x-x--x-x-x-x--|





Eb----------x----------------------|
Bb----------x----------------------| play this 3 times 
Gb----------x-2-2-0--0-2-3-3-3-----|
Db----------x-2-2-0--0-2-3-3-3-----|
Ab--x--2-2--x-2-2-0--0-2-3-3-3-----|
Eb--x--0-0-------------------------|



Eb----------x------------------------------| then play this
Bb----------x------------------------------| riff ending
Gb----------x-2-2-0--0-2-5-5-5-5-----------|
Db----------x-2-2-0--0-2-5-5-5-5-----------|
Ab--x--2-2--x-2-2-0--0-2-5-5-5-5-----------|
Eb--x--0-0---------------------------------|





Eb--------------------------------| 
Bb--------------------------------| solo-ish bit part in the verse
Gb---------0--2h3-2p0-------------|
Db----------------------2-2-------|
Ab----------------------2-2-------|
Eb----------------------0-0-------|



Pre Chorus

Eb------------------------|
Bb------------------------|
Gb------------------------|
Db------------------------|
Ab--x--2-2---x-x--x-x-x-x-|
Eb--x--0-0---x-x--x-x-x-x-|







chorus


Eb----------------------------------| 
Bb----------------------------------|  Play this 4 times then go
Gb----------------------------------| back to the guitar intro riff
Db------------5/7-7-7-7-5-5---------|
Ab---2-2------3/5-5-5-5-3-3-x-x-----|
Eb---0-0--0---3/5-5-5-5-3-3-x-x-----|









Eb------------------------------------------| 
Bb------------------------------------------| Bridge part 1
Gb------------------------------------------|
Db--------7\-6-6-6-5-5\-4-4-\-3-3-\---------|
Ab--------5\-4-4-4-3-3\-2-2-\-1-1-\-0-------|
Eb---0-0------------------------------------|




Eb----------------------------------------| Bridge 2nd part
Bb----------------------------------------| 
Gb---------------------------------x-x----|
Db--------7\-6-6-6-5-5\-4-4-\-3-3--x-x----|
Ab--------5\-4-4-4-3-3\-2-2-\-1-1--x-x----|
Eb---0-0----------------------------------|




Verse 2 with a cry baby pedal effect


|---------------------------------------------------------------------------|
|---------------------------------------------------------------------------|
|9-9-9-9-9-9-9-9-9-9-9-9-9-9-9-9-9-9-9-9-9-9-9-9-9-9-9-9-9-9-9-9-9-7-7-7-7h9|
|---------------------------------------------------------------------------|
|---------------------------------------------------------------------------|
|---------------------------------------------------------------------------|




Play Chorus a few more times then play this riff


Eb--------------------------------|
Bb--------------------------------|Repeat a couple times
Gb--------------------------------|
Db--------------------------------|
Ab--x--2-2---x-x--x-x-x-x--7-7--5-|
Eb--x--0-0---x-x--x-x-x-x--5-5--3-|

Then end on

Eb-----------|
Bb-----------|
Gb-x---------|
Db-x--7-7-7--|
Ab-x--5-5-5--|
Eb-x--5-5-5--|
Suggest correction
Give kudos to tab author, rate the tab!
1 2 3 4 5
comments
print report bad tab
guest
You may want to rate the tab now too:
select rating
Wanna post a correction for this tab? Suggest correction