Oops, an error
Loading. Please wait.

Given Bass

version 1
version 1

Whole song

Interactive

331 views 1 this week
no commentswrite comment
1 2 3 4 5
3 more votes to show rating
add to favorites
launch autoscroll
font size
0
reset
guitar tuner
×
Best way to learn
"Given"
Autoscroll
slow
fast
+/-
esc
set tempo
stop
Author
Difficulty
  follow
intermediate
Seether - Given
Album: Karma And Effect

bass tab

by : doky 2007
taquilleros_de_sudamerica_maroyu_el_grupo_tropical_del_momento@hotmail.com

5-stringed bass
G D A E B

   VERSO/PRE-CORO
G-|-----------------------------|
D-|-----------------------------|
A-|-----------------------------|
E-|-----------------------------|
B-|-0-0----2-2----3-3----5-5----|


   CORO
G-|-----------------------|
D-|-----------------------|
A-|-----------------------|
E-|--------3-3----0-0-----|
B-|-0-0-------------------|


   BREAK
G-|---------|
D-|---------|
A-|---------|
E-|---------|
B-|-000-000-|


G-|-----------------------------|
D-|-----------------------------|
A-|----535----757----353----753-|
E-|-----------------------------|
B-|-00-----00-----00-----00-----|


   MIDDLE
G-|-------------|-------------|-----------|---------------|
D-|-------------|-------------|-----------|---------------|
A-|-------------|-------------|-----------|---------------|
E-|-------3-3-3-|-------5-5-5-|-----------|-------5/7-5---|
B-|-0-0-0-------|-0-0-0-------|-----------|-0-0-0-------7-|
                                variacion

G-|--------------------------------------------------|---|---------|
D-|-------------------------------------5---55-------|---|---------|
A-|--------------------------------------------------|---|---------|
E-|-0-0-0-0-0-0-0-0-0-0-0-0-3-3-3-3-3-3---3----3-3-3-|---|---------|
B-|--------------------------------------------------|---|-000-000-|
                                                       +

Mando salutos Al Miguel Romero de QB 2004 que era vocalista secundario cuando hemos
tocado nirvana en el audiovisual con El Onty, El Marco, El Chuper. asiiii
tara hemos tocabo esa vez.

doky2007
Suggest correction
Give kudos to tab author, rate the tab!
1 2 3 4 5
comments
print report bad tab
guest
You may want to rate the tab now too:
select rating
Wanna post a correction for this tab? Suggest correction