Oops, an error
Loading. Please wait.

Given Bass Tab

version 2
version 2

Whole song

Interactive

279 views 1 this week
1 commentread comment
1 2 3 4 5
3 more votes to show rating
add to favorites
launch autoscroll
font size
0
reset
guitar tuner
Autoscroll
slow
fast
+/-
esc
set tempo
stop
Help us to improve Ultimate-Guitar.com Take our survey!
×
Author
“Given”

Drop D

Verse
|----------------------------------|
|----------------------------------|
|----------------------------------|
|-0-2-2~--0-4-4~---0-6-6~---0-7-7~-| x4

Chorus
|-------------------------------|
|-------------------------------|
|-------------------------------|
|--6-6~-9-9-9~--7-7-7~--7-7-7~--| x2

End of Chorus
|-----------------|
|-----------------|
|-----------------|
|-0h5-0-5-0h5-4-5-|

After Chorus
|--------------------------------------------------------|
|--------------------------------------------------------|
|--------5-3-5---------7-5-7---------3-5-3---------7-5-3-|
|-0-0-0-0------0-0-0-0-------0-0-0-0-------0-0-0-0-------|

Verse x4
Chorus 1 x2
Chorus 2 x2 (don't play the 12's on the repeat)
|-------------------------------------------------------------|
|-------------------------------------------------------------|
|-3-3-3-3-2-4-6-6-6-6-5-7-8-8-8-8-7-9-10-10-10-10-12-12-12-12-|
|-------------------------------------------------------------|

End of Chorus
After Chorus x4

Bridge x2
|------------------------------------------------------------------|
|------------------------------------------------------------------|
|---------7-7-7-7---------3-3-3-3----------7-7-7-7---------5/7-5---|
|-0-0-0-0---------0-0-0-0----------0-0-0-0---------0-0-0-0-------7-|

Solo
|-------------------------------------------|
|-----------------------------------5---5-5-|
|-0-0-0-0-0-0-0-0-3-3-3-3-3-3-3-3-3---------|
|-------------------------------------5-----| x2

End of Chorus x1
Chorus 1 x2
Chorus 2 x2
End of Chorus x1
After Chorus x4
Suggest correction
Give kudos to tab author, rate the tab!
1 2 3 4 5
comments
print report bad tab
1 comment total.
0 reply
Bass Pants 1,920 Aug 03, 2007 11:08 PM

parts of this is not right an update is on the way!

guest
You may want to rate the tab now too:
select rating
Wanna post a correction for this tab? Suggest correction