Oops, an error
Loading. Please wait.

Given Tab

version 3
version 3

Solo

Whole song

Interactive

4,962 views 6 this week
2 commentsread comments
1 2 3 4 5
excellent!
x 5
add to favorites
launch autoscroll
font size
0
reset
how to read this tab
guitar tuner
Tab Pro tools
  • play this tab
  • loop segment
  • change instrument
  • show fretboard
  • metronome
Autoscroll
slow
fast
+/-
esc
set tempo
stop
Contributor
-------------------------------------------------------------------------------
                                    GIVEN - Seether
-------------------------------------------------------------------------------
Artist  : Seether
Album   : Karma And Effect
Song    : Given
Tabbed by: Phil Dunn

Tuning: Drop 1½ step Drop B (B F# B E G# c# from lowest to highest)

Instead of writing down the whole tab for every bit I’ve just tabbed out all the 
bits so that you can put them together yourself! Its much easier this way =P

| /  slide up
| \  slide down
| h  hammer-on
| p  pull-off
| ~  vibrato
| *  harmonic
| x  Mute note

Intro/Verse/Pre-Chorus
c#|--------------------------------------------------------------------|
G#|--------------------------------------------------------------------|
E |------------7\--5\--2-------------------------------------------7---|
B |------------7\--5\--2---------5-----5---------5-----5-----------7---|
F#|------0-----------------------------------------------------5-------|
B |0--------0--------------2-------2-----2/3-------3-----3/5-----5-----|

Chorus
c#|--[For this section you can work out the strumming its easy enough]-|
G#|--------------------------------------------------------------------|
E |--------------------------------------------------------------------|
B |0-----------------8------------------5------------------------------|
F#|0-----------------8------------------5------------------------------|
B |0-----------------8------------------5------------------------------|

c#|-------------------------------------------------------------------------------|
G#|-------------------------------------------------------------------------------|
E |-------------------------------------------------------------------------------|
B |0-----------------8------------------5------------------5-p3--3---3-5-p3--3---3|
F#|0-----------------8------------------5------------------5-p3--3---3-5-p3--3---3|
B |0-----------------8------------------5------------------5-p3--3---3-5-p3--3---3|

Post-Chorus
c#|------------------------------------------------------------------------------|
G#|------------------------------------------------------------------------------|
E |-----------10\8-/10------------12\10/12------------8-/10\6------------12\10\8-|
B |0-0---0--0----------0-0---0--0----------0-0---0--0---------0-0---0--0---------|
F#|0-0---0--0-8-\6-/8--0-0---0--0-10\8-/10-0-0---0--0-6-/8-\6-0-0---0--0-10\8\6--|
B |0-0---0--0----------0-0---0--0----------0-0---0--0---------0-0---0--0---------|

Bridge
c#|-----[For this section you can work out the strumming its easy enough]-----|
G#|---------------------------------------------------------------------------|
E |---------------------------------------------------------------------------|
B |0--------8--------0--------10-------0--------8--------0--------10-8--5-----|
F#|0--------8--------0--------10-------0--------8--------0--------10-8--5-----|
B |0--------8--------0--------10-------0--------8--------0--------10-8--5-----|


Solo
c#|10-------10-10-8--13---15~~~~~~~~~~------------------------------------------|
G#|------------------------------------10-8--6--8~~~~~~~~10-8--6--8~~~~~~~~-----|
E |-----------------------------------------------------------------------------|
B |-----------------------------------------------------------------------------|
F#|-----------------------------------------------------------------------------|
B |-----------------------------------------------------------------------------|

c#|-----------------------------------------------------------------------------|
G#|-----------------------------------------------------------------------------|
E |7--------7--7--5--10---12~~~~~~~~~~------------------------------------------|
B |------------------------------------7--5--3—5~~~~~~~~~5-p3--3---3-5-p3--3---3|
F#|------------------------------------------------------5-p3--3---3-5-p3--3---3|
B |------------------------------------------------------5-p3--3---3-5-p3--3---3|

And that’s about it. I know I said that I would make this tab ages ago but… well… I just 
got round to it. Please comment and rate as it will be greatly appreciated. Cheers

- Phil


===============================================================================
comments
print report bad tab
2 comments total.
0 reply
DsmithUAT wrote on July 7 2007, 01:06 am

Kickass song, kickass tab.
Good job Bro

-Smith

+2 reply
Godsmackkid1113 wrote on December 17 2009, 10:25 pm

Awesome tab man, just one little thing. I think he plays it like this, makes it sound more open and rings more:

Intro/Verse/Pre-Chorus

c#|--------------------------------------------------------------------|
G#|--------------------------------------------------------------------|
E |------------7\--5\--2---------0----0--------0-----0------------7----|
B |------------7\--5\--2--------------------------------------0---7----|
F#|------0-------------------------------------------------------------|
B |0--------0--------------2-------2-----2/3-------3-----3/5-----5-----|

I want to post or [tab]
guest
You may want to rate the tab now too:
select rating
Please do not post tabs as comments. Select "correction" instead!