Oops, an error
Loading. Please wait.

Given Tab

version 4
version 4

Whole song

Interactive

1,471 views 1 this week
no commentswrite comment
1 2 3 4 5
please rate
add to favorites
launch autoscroll
font size
0
reset
how to read this tab
guitar tuner
Autoscroll
slow
fast
+/-
esc
set tempo
stop
Help us to improve Ultimate-Guitar.com Take our survey!
×
Author
Tuning
Tabbers playing skills
B F# B E G# C#
intermediate +
OK, The Tuning is Drop B, Which is Drop D tuned down 1 1/2 steps

This song is kinda hard to get the fingerings for...but its a cool song...

I actually wrote the 1st guitar pro version of this song on ultimate-guitar.com. But I 
this for those who dont have guitar pro...
(so if you have guitar pro, check out the 1st "Given" guitar pro tab on here...

You Can play the song in Drop D, but it wont match the recording done by Seether....

Song is in 6/8

Intro/Verse 1
(Play this 2 times for the intro, and 4 times for the verse.)
C#|--------------|-----------|-----------|----------|
G#|--------------|-----------|-----------|----------|
E |--------7\5-2-|-----------|-----------|-------7--|
B |--------7\5-2-|---5---5---|---5---5---|-------7--|
F#|----0---------|-----------|-----------|---5------|
B |--0---0-------|-2---2---2-|-3---3---3-|-5---5----|
     E.S E E E E   E.E.E E E   E.E.E E E   E.S E Q.

Chorus
(Strumming pattern is optional, you can do it however you want...I'll Just give you the chords.)
|-----|-----|-----|-----|-----|-----|-----|--------------------|
|-----|-----|-----|-----|-----|-----|-----|--------------------|
|--2--|-10--|--7--|--7--|--2--|-10--|--7--|--7-5---5--7-5---5--|
|--0--|--8--|--5--|--5--|--0--|--8--|--5--|--5-3---3--5-3---3--|
|--0--|--8--|--5--|--5--|--0--|--8--|--5--|--5-3---3--5-3---3--|
|--0--|--8--|--5--|--5--|--0--|--8--|--5--|--5-3---3--5-3---3--|
                                             S S S E. S S S E.

Post-Chorus
|-----------------|------------------|------------------|----------------|
|-----------------|------------------|------------------|----------------|
|---------10-8-10-|---------12-10-12-|---------8--10-8--|--------12-10-8-|
|-0--0-0--X--X--X-|-0--0-0--X--X--X--|-0--0-0--X--X--X--|-0--0-0 X--X--X-|
|-0--0-0--8--6--8-|-0--0-0--10-8--10-|-0--0-0--6--8--6--|-0--0-0-10-8--6-|
|-0--0-0----------|-0--0-0-----------|-0--0-0-----------|-0--0-0---------|
  Q  S S  E  E  E   Q  S S  E  E  E    Q  S S  E  E  E    Q  S S E  E  E


Verse 2
(Play 4x)
C#|--------------|-----------|-----------|----------|
G#|--------------|-----------|-----------|----------|
E |--------7\5-2-|-----------|-----------|-------7--|
B |--------7\5-2-|---5---5---|---5---5---|-------7--| 4x
F#|----0---------|-----------|-----------|---5------|
B |--0---0-------|-2---2---2-|-3---3---3-|-5---5----|
     E.S E E E E   E.E.E E E   E.E.E E E   E.S E Q.

Chorus
(Play 2x this time)
|-----|-----|-----|-----|-----|-----|-----|--------------------|
|-----|-----|-----|-----|-----|-----|-----|--------------------|
|--2--|-10--|--7--|--7--|--2--|-10--|--7--|--7-5---5--7-5---5--|
|--0--|--8--|--5--|--5--|--0--|--8--|--5--|--5-3---3--5-3---3--| 2x
|--0--|--8--|--5--|--5--|--0--|--8--|--5--|--5-3---3--5-3---3--|
|--0--|--8--|--5--|--5--|--0--|--8--|--5--|--5-3---3--5-3---3--|
                                             S S S E. S S S E.
Chorus (2nd Guitar)
(This is played on the second time through the chorus ^^)
|-------------|-------------|-----------------|-------------------|
|-------------|-------------|-----------------|-------------------|
|-------------|-------------|-----------------|-------------------|
|-------------|-------------|-----------------|-------------------|
|-5---5-5\3/5-|-8---8-8\5/8-|-10---10-10\8/10-|-12-12/15-15/17-17-|
|-------------|-------------|-----------------|-------------------|
   Q   E E E E  Q   E E E E   Q     E  E E  E   E   E  E  E  E  E

|-------------|-------------|-----------------|-------------------|
|-------------|-------------|-----------------|-------------------|
|-------------|-------------|-----------------|-------------------|
|-------------|-------------|-----------------|-------------------|
|-5---5-5\3/5-|-8---8-8\5/8-|-10---10-10\8/10-|-5-3---3--5-3---3--|
|-------------|-------------|-----------------|-------------------|
   Q   E E E E  Q   E E E E   Q     E  E E  E   S S S E. S S S E.


Post-Chorus
(Play 2x this time)
|-----------------|------------------|------------------|----------------|
|-----------------|------------------|------------------|----------------|
|---------10-8-10-|---------12-10-12-|---------8--10-8--|--------12-10-8-|
|-0--0-0--X--X--X-|-0--0-0--X--X--X--|-0--0-0--X--X--X--|-0--0-0 X--X--X-|2x
|-0--0-0--8--6--8-|-0--0-0--10-8--10-|-0--0-0--6--8--6--|-0--0-0-10-8--6-|
|-0--0-0----------|-0--0-0-----------|-0--0-0-----------|-0--0-0---------|
  Q  S S  E  E  E   Q  S S  E  E  E    Q  S S  E  E  E    Q  S S E  E  E


Bridge
(I'll Give you the chords, you can strum the way to want...)
(Play 2x)
|--------|---------|--------|-------------|
|--------|---------|--------|-------------|
|--------|---------|--------|-------------|
|--0--8--|--0--10--|--0--8--|--0--10-8-5--| 2x
|--0--8--|--0--10--|--0--8--|--0--10-8-5--|
|--0--8--|--0--10--|--0--8--|--0--10-8-5--|

Solo Chords
(These Are the chords played in the background while the solo is performed)
(I am not 100% on these chords)
|---|---|---|---|---|---|------------|-------------------|
|---|---|---|---|---|---|------------|-------------------|
|---|---|---|---|---|---|------------|-7-5---5--7-5---5--|
|-5-|-5-|-8-|-8-|-5-|-5-|-8-let-ring-|-5-3---3--5-3---3--|
|-5-|-5-|-8-|-8-|-5-|-5-|-8----------|-5-3---3--5-3---3--|
|-5-|-5-|-8-|-8-|-5-|-5-|-8----------|-5-3---3--5-3---3--|
                          H.           S S S E. S S S E.

Solo
(Remember we're in 6/8 time)
|-10--10-10-10-8-|-13--15-|----------|----------|-----------|-----------|
|----------------|--------|-10-8-6-8-|-10-8-6-8-|-----------|-----------|
|----------------|--------|----------|----------|-7--7-7--5-|-10----12--|
|----------------|--------|----------|----------|-----------|-12b(1 1/4)|
|----------------|--------|----------|----------|-----------|-----------|
|----------------|--------|----------|----------|-----------|-----------|
  Q   E  E  E  E   Q   H    E  E E Q.  E  E E Q.  Q  E Q  E    Q    H

|---------|------------------|
|---------|------------------|
|---------|------------------|
|-7-5-3-5-|------------------|
|---------|-5-3---3--5-3---3-|
|---------|------------------|
  E E E Q.  S S S E. S S S E.

Final Chorus
(Play 2x)
|-----|-----|-----|-----|-----|-----|-----|--------------------|
|-----|-----|-----|-----|-----|-----|-----|--------------------|
|--2--|-10--|--7--|--7--|--2--|-10--|--7--|--7-5---5--7-5---5--|
|--0--|--8--|--5--|--5--|--0--|--8--|--5--|--5-3---3--5-3---3--| 2x
|--0--|--8--|--5--|--5--|--0--|--8--|--5--|--5-3---3--5-3---3--|
|--0--|--8--|--5--|--5--|--0--|--8--|--5--|--5-3---3--5-3---3--|
                                             S S S E. S S S E.
Chorus (2nd Guitar)
(This is played on the second time through the chorus ^^)
|-------------|-------------|-----------------|-------------------|
|-------------|-------------|-----------------|-------------------|
|-------------|-------------|-----------------|-------------------|
|-------------|-------------|-----------------|-------------------|
|-5---5-5\3/5-|-8---8-8\5/8-|-10---10-10\8/10-|-12-12/15-15/17-17-|
|-------------|-------------|-----------------|-------------------|
   Q   E E E E  Q   E E E E   Q     E  E E  E   E   E  E  E  E  E

|-------------|-------------|-----------------|-------------------|
|-------------|-------------|-----------------|-------------------|
|-------------|-------------|-----------------|-------------------|
|-------------|-------------|-----------------|-------------------|
|-5---5-5\3/5-|-8---8-8\5/8-|-10---10-10\8/10-|-5-3---3--5-3---3--|
|-------------|-------------|-----------------|-------------------|
   Q   E E E E  Q   E E E E   Q     E  E E  E   S S S E. S S S E.


Post-Chorus/Outro
(Play 2x this time)
|-----------------|------------------|------------------|----------------|
|-----------------|------------------|------------------|----------------|
|---------10-8-10-|---------12-10-12-|---------8--10-8--|--------12-10-8-|
|-0--0-0--X--X--X-|-0--0-0--X--X--X--|-0--0-0--X--X--X--|-0--0-0 X--X--X-|2x
|-0--0-0--8--6--8-|-0--0-0--10-8--10-|-0--0-0--6--8--6--|-0--0-0-10-8--6-|
|-0--0-0----------|-0--0-0-----------|-0--0-0-----------|-0--0-0---------|
  Q  S S  E  E  E   Q  S S  E  E  E    Q  S S  E  E  E    Q  S S E  E  E


SONG ORDER:
INTRO/VERSE 1 (6x)
CHORUS (1x)
POST-CHORUS (1x)
VERSE 2 (4x)
CHORUS (2x)
POST-CHORUS (2x)
BRIDGE (2x)
SOLO CHORDS AND SOLO (1x)
FINAL CHORUS (2x)
POST CHORUS/OUTRO (2x)

KEY:
W = Whole note
H.= Dotted Half note
H = Half note
Q.= Dotted Quarter note
Q = Quarter note
E.= Dotted Eight note
E = Eight Note
S.= Dotted Sixteenth note
S = Sixteenth note

NOTE:(Where I put a duration sign "S" under the tablature where there were no chords, It 
a rest...)

E-mail me at Jonjy2@yahoo.com for question or comments etc.
Suggest correction
Give kudos to tab author, rate the tab!
1 2 3 4 5
comments
print report bad tab
guest
You may want to rate the tab now too:
select rating
Please do not post tabs as comments. Select "correction" instead!