Oops, an error
Loading. Please wait.

Got It Made Tab

version 2
version 2

Whole song

Interactive

2,708 views 9 this week
1 commentread comment
1 2 3 4 5
accurate
x 3
add to favorites
launch autoscroll
font size
0
reset
how to read this tab
guitar tuner
Tab Pro tools
  • play this tab
  • loop segment
  • change instrument
  • show fretboard
  • metronome
Autoscroll
slow
fast
+/-
esc
set tempo
stop
Contributor
Difficulty
intermediate
Seether - Got it made tab
Tabbed by JCTHELOVECHILD
Any requests just email me

Intro and verse (guitar 1) enter after drum intro
E|-----------------------------------------------------------------|
B|-----------------------------------------------------------------|
G|-----------------------------------------------------------------|
D|-----------------------------------------------------------------|
A|-----0-----0-----0-----0-----0-----2-----2-----2-----2---0-0h2-0-|
E|-2-2---2-2---2-2---2-2---2-2---0-0---0-0---0-0---0-0---0---------|


Verse (guitar 2) enter when singing comes in
E|---------------------------------------------------------------|
B|---------------------------------------------------------------|
G|---------------------------------------------------------------|
D|-----7-----7-----7-----7-----7-----9-----9-----9---9---7-7h9-7-|
A|-9-9---9-9---9-9---9-9---9-9---7-7---7-7---7-7---7---7---------|
E|---------------------------------------------------------------|

Pre-Chorus (guitar 1)
E|-----0-------0-------2-------2-----0-------0-------2-------2-|
B|-------------------------------------------------------------|
G|---4-------4-------4-------4-----4-------4-------4-------4---|
D|-2-------2-------2-------2-----2-------2-------2-------2-----|
A|-------------------------------------------------------------|
E|-------------------------------------------------------------|


Pre Chorus (Guitar 2 can play something like this to fill it out)

E|-------------------------|
B|-------------------------|
G|-------------------------|
D|-----4-----4-----2-----2-|
A|---4-----4-----2-----2---|
E|-2-----2-----0-----0-----|

Chorus (Both guitars)
E|---------------------------------------------------------|
B|---------------------------------------------------------|
G|---------------------------------------------------------|
D|-4-4-4-4-4-4-2-2-2-2-2-2-4-4-4-4-4-4-2-2-2-2-2-2-----0h2-|
A|-4-4-4-4-4-4-2-2-2-2-2-2-4-4-4-4-4-4-2-2-2-2-2-2-0h2-----|
E|-2-2-2-2-2-2-0-0-0-0-0-0-2-2-2-2-2-2-0-0-0-0-0-0---------|

Bridge (Both guitars)
E|-------------------------------------|
B|-------------------------------------|
G|-------3-----------------------------|
D|-6-6-6---2-2-2-2-2-2-4-4-4-4-4-4-4-4-|
A|-6-6-6---2-2-2-2-2-2-4-4-4-4-4-4-4-4-|
E|-4-4-4---0-0-0-0-0-0-2-2-2-2-2-2-2-2-|

Solo
E|-------------------------------------------|
B|-------------------------------------------|
G|-------------------------------------------|
D|-1-2-1-2/4-4p2-2/6-6p4-4/7-7-7p6-6\2-6\2/4-|
A|-------------------------------------------|
E|-------------------------------------------|

During solo
E|-----0-------0-------2-------2-----0-------0-------2-------2-|
B|-------------------------------------------------------------|
G|---4---4---4---4---4---4---4-----4---4---4---4---4---4---4---|
D|-2-------2-------2-------2-----2-------2-------2-------2-----|
A|-------------------------------------------------------------|
E|-------------------------------------------------------------|

-After the solo in the last verse, only play the first guitar
-End the song with chorus chords
comments
We did not receive enough feedback on this tab! Please rate:
print report bad tab
1 2 3 4 5
1 comment total.
0 reply
robin_r58 wrote on June 16 2014, 10:31 am

Lack of accuracy.

I want to post or [tab]
guest
You may want to rate the tab now too:
select rating
Please do not post tabs as comments. Select "correction" instead!