Oops, an error
Loading. Please wait.

Im The One Bass Tab

version 1
version 1

Whole song

Interactive

626 views 3 this week
no commentswrite comment
1 2 3 4 5
please rate
add to favorites
launch autoscroll
font size
0
reset
guitar tuner
Autoscroll
slow
fast
+/-
esc
set tempo
stop
Help us to improve Ultimate-Guitar.com Take our survey!
×
Seether
I’m The One 
DbAbDbGb

Intro:
|-------|-----------|
|-------|*---------*|
|-------|*---------*|
|-r-010-|-5~321-010-|X9

Verse/Pre-Chorus:
|-----------|
|*---------*|
|*---------*|
|-5~321-010-|X16

Chorus: 
|----------------------------------|
|------------------3~3333333333333-|
|-2~22222222222222-----------------|
|----------------------------------|

|-----------------------------------|
|-0~00000000000000------------------|
|------------------2~22222222222000-|
|-----------------------------------|

Verse/Pre-Chorus: X19

Chorus: X2 

Bridge:
|---|---------------------|   |------------|
|---|*-------------------*|   |------------|
|---|*-------------------*|   |------------|
|-r-|-0320-2102-2102-34-r-|X3 |-03202102-r-|

Chorus: X2 
Verse/Pre-Chorus: X9
Suggest correction
Give kudos to tab author, rate the tab!
1 2 3 4 5
comments
print report bad tab
guest
You may want to rate the tab now too:
select rating
Please do not post tabs as comments. Select "correction" instead!