Oops, an error
Loading. Please wait.

Im The One Bass Tab

version 2
version 2

Whole song

Interactive

129 views 3 this week
no commentswrite comment
1 2 3 4 5
please rate
add to favorites
launch autoscroll
font size
0
reset
guitar tuner
Autoscroll
slow
fast
+/-
esc
set tempo
stop
Help us to improve Ultimate-Guitar.com Take our survey!
×
Author
"I’m The One" - Seether
Db, A, D, G

Verse                                      
G |----------|-----------------------|
D |----------|-----------------------|
A |----------|-----------------------|
Db|--3-5-0-2-|----2-1-0-3-5-0-2------| x24


Chorus:
G |--------------------------------------------------------------|
D |--------------------------------------------------------------|
A |-2~2-2-2-2-2-2-2-2-2-2-8-8-8-8-5~5-5-5-5-5-5-5-7-7-7-6-5-2----|
Db|--------------------------------------------------------------|

G |--------------------------------------------------------------|
D |--------------------------------------------------------------|
A |-2~2-2-2-2-2-2-2-2-2-2-8-8-8-8-5~5-5-5-5-5-5-5-7-7------------|
Db|---------------------------------------------------3-5-0-2----| 

Verse/Pre-Chorus: X19

Chorus: X2

Bridge:
G |---|-------------------------------|   |-------------------|
D |---|-------------------------------|   |-------------------|
A |---|-------------------------------|   |-------------------|
Db|-r-|-0-2-1-0-2-1-0-2-1-0-2-0-2-1-r-|X3 |-0-2-1-0-2-1-0-2-r-|

Chorus: X2
Verse/Pre-Chorus: X9


Suggest correction
Give kudos to tab author, rate the tab!
1 2 3 4 5
comments
print report bad tab
guest
You may want to rate the tab now too:
select rating
Wanna post a correction for this tab? Suggest correction