Oops, an error
Loading. Please wait.

Im The One Tab

version 2
version 2

Whole song

Interactive

893 views 1 this week
2 commentsread comments
1 2 3 4 5
please rate
add to favorites
launch autoscroll
font size
0
reset
how to read this tab
guitar tuner
Autoscroll
slow
fast
+/-
esc
set tempo
stop
Help us to improve Ultimate-Guitar.com Take our survey!
×
Contributor
Tuning:
1-E
2-B
3-G
4-D
5-A
6-D

Guitar 2 = lead
Guitar 1 = rhythm

INTRO (guitar 1)(guitar 2[first time only])
E|-----------------------------------------------------------------|
B|-----------------------------------------------------------------|
G|-----------------------------------------------------------------|
D|--3/5--3-3-2p1-3/5---3--3-2p1-3/5---3--3-2p1-3/5---3--3-2p1-3/5--|
A|--3/5--3-3-2p1-3/5---3--3-2p1-3/5---3--3-2p1-3/5---3--3-2p1-3/5--|
D|--3/5--3-3-2p1-3/5---3--3-2p1-3/5---3--3-2p1-3/5---3--3-2p1-3/5--|
 |
E|------------------------------------------------------------------|
B|------------------------------------------------------------------|
G|------------------------------------------------------------------|
D|--3--3-2p1-3/5---3--3-2p1-3/5---3--3-2p1-3/5---3--3-2p1-3/5---5\--|
A|--3--3-2p1-3/5---3--3-2p1-3/5---3--3-2p1-3/5---3--3-2p1-3/5---5\--|
D|--3--3-2p1-3/5---3--3-2p1-3/5---3--3-2p1-3/5---3--3-2p1-3/5---5\--|

INTRO (guitar 2)(2nd time)
E|--------------------------------------------------------------|
B|--------------------------------------------------------------|
G|--------------------------------------------------------------|
D|--------------------------------------------------------------|
A|--7-7-5\4-7/9---7-7-5\4-7/9---7-7-5\4-7/9---7-7-5\4-7/9---7\--|
D|--------------------------------------------------------------|

VERSE (guitar 1)
E|--------------------------------------|
B|--------------------------------------|
G|--------------------------------------|
D|--3/5 3\---3/5 3\---3/5 3\---x-x-3/5--|
A|--3/5 3\---3/5 3\---3/5 3\---x-x-3/5--|
D|--3/5 3\---3/5 3\---3/5 3\---x-x-3/5--|

VERSE (guitar 2)             last time
E|--------------------| x3 E|-------------------------|
B|--5--6--5-0---------|    B|--5--3-2-0-5-3-0-3-2-0~--|
G|--------------------|    G|-------------------------|
D|------------3/5-3\--|    D|-------------------------|
A|------------3/5-3\--|    A|-------------------------|
D|------------3/5-3\--|    D|-------------------------|

PRE-CHORUS (guitar 1+2)
E|-------------------------------------------------------------| x2
B|-------------------------------------------------------------|
G|-------------------------------------------------------------|
D|--3--3-2p1-3/5---3--3-2p1-3/5---3--3-2p1-3/5---3--3-2p1-3/5--|
A|--3--3-2p1-3/5---3--3-2p1-3/5---3--3-2p1-3/5---3--3-2p1-3/5--|
D|--3--3-2p1-3/5---3--3-2p1-3/5---3--3-2p1-3/5---3--3-2p1-3/5--|

CHORUS (guitar 1+2)
E|----------------------------------------------------------------------|
B|----------------------------------------------------------------------|
G|--4--4-4-4-4-4-4-4-4/11--11-11-11-11---7--7-7-7-7-7-7-7-7/9--9-9-9-9--|
D|--4--4-4-4-4-4-4-4-4/11--11-11-11-11---7--7-7-7-7-7-7-7-7/9--9-9-9-9--|
A|--2--2-2-2-2-2-2-2-2/9---9--9--9--9----5--5-5-5-5-5-5-5-5/7--7-7-7-7--|
D|----------------------------------------------------------------------|
 |
E|-----------------------------------------------------------------------|
B|-----------------------------------------------------------------------|
G|--4--4-4-4-4-4-4-4-4/11--11-11-11-11---7--7-7-7-7-7-7-7-7--9-9-7-9/11--|
D|--4--4-4-4-4-4-4-4-4/11--11-11-11-11---7--7-7-7-7-7-7-7-7--9-9-7-9/11--|
A|--2--2-2-2-2-2-2-2-2/9---9--9--9--9----5--5-5-5-5-5-5-5-5--7-7-5-7/9---|
D|-----------------------------------------------------------------------|

POST-CHORUS (guitar 1+2)
E|------------------------------------------------------------------|
B|------------------------------------------------------------------|
G|------------------------------------------------------------------|
D|--3--3-2p1-3/5---3--3-2p1-3/5---3--3-2p1-3/5---3--3-2p1-3/5---5\--|
A|--3--3-2p1-3/5---3--3-2p1-3/5---3--3-2p1-3/5---3--3-2p1-3/5---5\--|
D|--3--3-2p1-3/5---3--3-2p1-3/5---3--3-2p1-3/5---3--3-2p1-3/5---5\--|

VERSE (guitar 1)
E|--------------------------------------|
B|--------------------------------------|
G|--------------------------------------|
D|--3/5 3\---3/5 3\---3/5 3\---x-x-3/5--|
A|--3/5 3\---3/5 3\---3/5 3\---x-x-3/5--|
D|--3/5 3\---3/5 3\---3/5 3\---x-x-3/5--|

VERSE (guitar 2)             last time
E|--------------------| x3 E|-------------------------|
B|--5--6--5-0---------|    B|--5--3-2-0-5-3-0-3-2-0~--|
G|--------------------|    G|-------------------------|
D|------------3/5-3\--|    D|-------------------------|
A|------------3/5-3\--|    A|-------------------------|
D|------------3/5-3\--|    D|-------------------------|

PRE-CHORUS (guitar 1+2)
E|-------------------------------------------------------------| x2
B|-------------------------------------------------------------|
G|-------------------------------------------------------------|
D|--3--3-2p1-3/5---3--3-2p1-3/5---3--3-2p1-3/5---3--3-2p1-3/5--|
A|--3--3-2p1-3/5---3--3-2p1-3/5---3--3-2p1-3/5---3--3-2p1-3/5--|
D|--3--3-2p1-3/5---3--3-2p1-3/5---3--3-2p1-3/5---3--3-2p1-3/5--|

CHORUS (guitar 1+2) x2
E|----------------------------------------------------------------------|
B|----------------------------------------------------------------------|
G|--4--4-4-4-4-4-4-4-4/11--11-11-11-11---7--7-7-7-7-7-7-7-7/9--9-9-9-9--|
D|--4--4-4-4-4-4-4-4-4/11--11-11-11-11---7--7-7-7-7-7-7-7-7/9--9-9-9-9--|
A|--2--2-2-2-2-2-2-2-2/9---9--9--9--9----5--5-5-5-5-5-5-5-5/7--7-7-7-7--|
D|----------------------------------------------------------------------|
 |
E|-----------------------------------------------------------------------|
B|-----------------------------------------------------------------------|
G|--4--4-4-4-4-4-4-4-4/11--11-11-11-11---7--7-7-7-7-7-7-7-7--9-9-7-9/11--|
D|--4--4-4-4-4-4-4-4-4/11--11-11-11-11---7--7-7-7-7-7-7-7-7--9-9-7-9/11--|
A|--2--2-2-2-2-2-2-2-2/9---9--9--9--9----5--5-5-5-5-5-5-5-5--7-7-5-7/9---|
D|-----------------------------------------------------------------------|

INTERLUDE (guitar 2)
E|--------------------------------------|
B|--------------------------------------|
G|--------------------------------------|
D|--------------------------------------|
A|--------------------------------------|
D|--5h6--0bn--5h6--5/12h14/15\14p12h14--|
 |
 | (guitar 1+2) x3                 last time
E|-------------------------------|-------------------|
B|-------------------------------|-------------------|
G|--*-*-*-*-*-*-*-*-*-*-*-*-*-*--|--*-*-*-*-*-*-*-*--|
D|--0-3-2-1-0-5-3-2-0-3-2-1-0-1--|--0-3-2-1-0-5-3-0--|
A|--0-3-2-1-0-5-3-2-0-3-2-1-0-1--|--0-3-2-1-0-5-3-0--|
D|--0-3-2-1-0-5-3-2-0-3-2-1-0-1--|--0-3-2-1-0-5-3-0--|


CHORUS (guitar 1+2) x2
E|----------------------------------------------------------------------|
B|----------------------------------------------------------------------|
G|--4--4-4-4-4-4-4-4-4/11--11-11-11-11---7--7-7-7-7-7-7-7-7/9--9-9-9-9--|
D|--4--4-4-4-4-4-4-4-4/11--11-11-11-11---7--7-7-7-7-7-7-7-7/9--9-9-9-9--|
A|--2--2-2-2-2-2-2-2-2/9---9--9--9--9----5--5-5-5-5-5-5-5-5/7--7-7-7-7--|
D|----------------------------------------------------------------------|
 |
E|-----------------------------------------------------------------------|
B|-----------------------------------------------------------------------|
G|--4--4-4-4-4-4-4-4-4/11--11-11-11-11---7--7-7-7-7-7-7-7-7--9-9-7-9/11--|
D|--4--4-4-4-4-4-4-4-4/11--11-11-11-11---7--7-7-7-7-7-7-7-7--9-9-7-9/11--|
A|--2--2-2-2-2-2-2-2-2/9---9--9--9--9----5--5-5-5-5-5-5-5-5--7-7-5-7/9---|
D|-----------------------------------------------------------------------|

OUTRO (guitar 1)(guitar 2[first time only])
E|-----------------------------------------------------------------|
B|-----------------------------------------------------------------|
G|-----------------------------------------------------------------|
D|--3/5--3-3-2p1-3/5---3--3-2p1-3/5---3--3-2p1-3/5---3--3-2p1-3/5--|
A|--3/5--3-3-2p1-3/5---3--3-2p1-3/5---3--3-2p1-3/5---3--3-2p1-3/5--|
D|--3/5--3-3-2p1-3/5---3--3-2p1-3/5---3--3-2p1-3/5---3--3-2p1-3/5--|
 |
E|------------------------------------------------------------------|
B|------------------------------------------------------------------|
G|------------------------------------------------------------------|
D|--3--3-2p1-3/5---3--3-2p1-3/5---3--3-2p1-3/5---3--3-2p1-3/5---5\--|
A|--3--3-2p1-3/5---3--3-2p1-3/5---3--3-2p1-3/5---3--3-2p1-3/5---5\--|
D|--3--3-2p1-3/5---3--3-2p1-3/5---3--3-2p1-3/5---3--3-2p1-3/5---5\--|
OUTRO (guitar 2)(2nd time)
E|--------------------------------------------------------------|
B|--------------------------------------------------------------|
G|--------------------------------------------------------------|
D|--------------------------------------------------------------|
A|--7-7-5\4-7/9---7-7-5\4-7/9---7-7-5\4-7/9---7-7-5\4-7/9---7\--|
D|--------------------------------------------------------------|


=================================Key========================================
\ - slide down
/ - slide up
bn - bend above nut
~ - let ring
* - palm mute note below
Suggest correction new What's this?
You can suggest a correction to this tab. Community and Mods will review your correction and vote to approve or reject it.
comments
We did not receive enough feedback on this tab! Please rate:
print report bad tab
1 2 3 4 5
2 comments total.
0 reply
CrazzyMike 121 wrote on September 15 2010, 09:49 am

Well on my first look it looks oké xD
gonna try it today leave a not then again :P

0 reply
footlongsub 260 wrote on April 29 2014, 09:24 pm

Tuning is Db Ab Db Gb Bb Eb

guest
You may want to rate the tab now too:
select rating
Please do not post tabs as comments. Select "correction" instead!