Oops, an error
Loading. Please wait.

Immortality Tab

version 1
version 1

Intro

Whole song

5,344 views 6 this week
1 commentread comment
1 2 3 4 5
3 more votes to show rating
add to favorites
launch autoscroll
font size
0
reset
how to read this tab
guitar tuner
×
Best way to learn
"Immortality"
Autoscroll
slow
fast
+/-
esc
set tempo
stop
Author
Difficulty
  follow
novice
This song was originally by Pearl Jam, but was redone by Seether on their album One Cold
I’ve only been able to make a guess at the intro, so if any one has any corrections or
anything of value to add to the rest of the song, just post the corrections in a comment 
I’ll add it asap. Thanx.

Intro
------------------0---------------------------0-----------|
-------3-1--------0------------------3-1--------0---------|
-----0----0-0----------------------0----0-0---------------|
---2--------2--------------------2--------2---------------|
-3----------2-2-------3-5------3----------2-2---------3-5-|
------------0-----------------------------0---------------|


------------------0-0---------------------------|
-------3-1--------0-0------------------3-1------|
-----0----0-0------------------------0----0-0---|
---2--------2----------------------2--------2---|
-3----------2-----------3-5------3----------2---|
------------0-------------------------------0---|
Suggest correction
Give kudos to tab author, rate the tab!
1 2 3 4 5
comments
print report bad tab
1 comment total.
0 reply
ACOUSTIC SHOE 10 Aug 15, 2007 01:06 PM

i think this sounds good... do you have anymore?

guest
You may want to rate the tab now too:
select rating
Wanna post a correction for this tab? Suggest correction