Oops, an error
Loading. Please wait.

Immortality Tab

version 1
version 1

Solo

Whole song

8,684 views 1 this week
1 commentread comment
1 2 3 4 5
please rate
add to favorites
launch autoscroll
font size
0
reset
how to read this tab
guitar tuner
Tab Pro tools
  • play this tab
  • loop segment
  • change instrument
  • show fretboard
  • metronome
×
Best way to learn
"Immortality"
Autoscroll
slow
fast
+/-
esc
set tempo
stop
Difficulty
intermediate
Artist: Seether
Song: Immortality (Pearl Jam cover)
Album: One Cold Night
Tuning: half step down

I believe I got this about 85% correct. I really just tried to lay the ground work so 
someone who knows what their doing can tab it 100%. So this many not be totally correct 
it should get you pretty close. The video that comes with the cd helped a lot.

Key:
b= bend
bv= the only way to describe is bend and vibrate at same time
h= hammer on
p= pull off
/= slide up neck
\= slide down neck
//= rake the neck

(first solo)

-----------------------------------------------------------------------------|
------------------------------------------------------------------15---------|
---14bv--12\----/12bv-12bv-12bv--------12-----12h14p12----12—14b-------14—12-|
---------------------------------12h14----14-----------14--------------------|
-----------------------------------------------------------------------------|
-----------------------------------------------------------------------------|

--------------------------------------13h15p13------13----------------------|
----------15b—15b—15b—15bv---13---15------------15------15--13--------------|
--14--16------15b-15b-15bv--------------------------------------15--12------|
----------------------------------------------------------------------------|
----------------------------------------------------------------------------|
----------------------------------------------------------------------------|

----------------------------------------------------------------------------|
----------------------------------------------------------------------------|
--(14-14-14)b—14b-14b---12h14p12------12------------------------------------|
----------------------------------14------14\-------------------------------|
----------------------------------------------------------------------------|
----------------------------------------------------------------------------|

the second solo is hard for me to really hear but this should get you close

(second solo)
				   I believe these are the notes played
				   but listen to song for rhythm
-----------------------------------------0-0-0-0---0-0-0-0-0-0-0-0-0-0-0----|
----------------------------------------/3-3-3-3--/5-5-5-8-5-8-8-5-5-5-8/---|
--2h3p2----------------2h3p2----0-------------------------------------------|
---------2-------------------2----------------------------------------------|
----------------------------------------------------------------------------|
-------------3-3—3bv---------------3-3--------------------------------------|
                                            Again listen to song for rhythm
-------0-0-0-0-0---------0-0-0-0-0-0----------------------------------------|
-------8-8-5-5-3/--------8-8-8-5-5-5/---------------------------------------|
-----------------------------------------14-12-14-12-12-12-12-12-14bv-12----|
-----------------------------------------14-12-14-12-12-12-12-12------------|
--//----------------//------------------------------------------------------|
--//---------------//-------------------------------------------------------|

---------12--------12-------------------------------------------------------|
------12----12—15b----15--12------------------------------------------------|
--14--------------------------14--12—12h14p12------12--------2h3p2----------|
-----------------------------------------------14------14\---------2/-------|
----------------------------------------------------------------------------|
----------------------------------------------------------------------------|

----------------------------------------------------------------------------|
----------------------------------------------------------------------------|
---------12-------12-14-14b-12------2h3p2---0-------------12-------12—12\---|
--12h14-----12h14--------------14\--------2---2/----12h14----12h14----------|
----------------------------------------------------------------------------|
----------------------------------------------------------------------------|

      Ditto with the rhythm
--0-0-0-0-0-0-0-0-0-0--0--0---0--0--0--0--17--------------------------------|
--3-3-3-5-5-5-8-8-8-10-10-10-12-12-12-15------15bv\-------------------------|
----------------------------------------------------------------------------|
----------------------------------------------------------------------------|
----------------------------------------------------------------------------|
----------------------------------------------------------------------------|
comments
We did not receive enough feedback on this tab! Please rate:
print report bad tab
1 2 3 4 5
1 comment total.
0 reply
deaf-tones wrote on February 2 2007, 02:36 pm

Close, but its more like this for the start of the second solo. You can see him bend the string

-------------------------------------------------
-------------------------------------------------
--2b3r2p0-----------------2b3r2p0---0------------
----------2-----------------------2---2----------
------------x----------------------------x-------
------------x-3b-3b-3b-------------------x-3b-3b-

I want to post or [tab]
guest
You may want to rate the tab now too:
select rating
Please do not post tabs as comments. Select "correction" instead!