Oops, an error
Loading. Please wait.

Immortality Tab

version 1
version 1

Whole song

by Seether
20,100 views 9 this week
5 commentsread comments
1 2 3 4 5
x 6
add to favorites
launch autoscroll
font size
0
reset
how to read this tab
guitar tuner
Autoscroll
slow
fast
+/-
esc
set tempo
stop
Author
Difficulty
Tuning
intermediate
D# G# C# F# A# D#
Seether-Immortality (Acoustic)
One Cold Night Feb 22 2006

Tune down half-a-step (low to high) Eb-Ab-Db-Gb-Bb-Eb
[Intro]

[Intro]
Eb|------------------0--------------------------0-----------------------00--|
Bb|--------3p1-------0----------------3p1---------0--------------3p1----00--|
Gb|------0-----0--(0)---------------0----0---------------------0----0-------|
Db|----2--------------------0-----2-----------2--------0-----2--------------|
Ab|--3--------------------2-----3---------------------2----3----------------|
Eb|--------------0-------------------------0---------------------------0----|

Eb|--------------------|
Bb|-----------3p1------|
Gb|---------0-----0----|
Db|-2-----2------------|
Ab|--2--3--------------|
Eb|-----------------0—-|

[Verse 1&2] - I think every other time he plays (0h3p0)
Eb|-0-0-------00---00-000------------|
Bb|-0-0(h3p0)-00---33-333------------|
Gb|-0-0-------00---22-222----(12x)---|
Db|-2-2-------22---00-000------------|
Ab|-2-2-------22---xx-xxx------------|
Eb|-0-0-------00---xx-xxx------------|
    d d       d^   ^d ^d^

This is how I suggest strumming it

Lyrics for verse:
Vacate is the word...vengeance has no place so near to her
Cannot find the comfort in this world
Artificial tear...vessel stabbed...next up volunteers
Vulnerable wisdom can't adhere...

[Chorus]
  C              Em
A truant finds home...
  C                Em
and I will to hold on...
C                         A                 D
But there's a trapdoor in the sun...

Immortality...

[Solo] just strum the verse

[Verse 2]
As privileged as a whore...victims in demand for public show
Swept out through the cracks beneath the door
Holier than thou how?
Surrendered...executed anyhow
Scrawl dissolved, cigar box on the floor...

Solo 2- Mess around with C,Em,D and A in that order

[Verse 3]
I cannot stop the thought of running in the dark
coming up a which way sign
all good truants must decide

[Bridge]
C                       Em
Sstripped and sold mom
C                    Em
an auctioned forearm
C              A          D
and whiskers in the sink
C                   Em
A truant finds his home
C                        Em
And a will to hold onto
C              A    D
some die just to live...

ohh...

[Outro] I know this isn't exact but its close
Eb|--------------------/12-12------------------------12-12-12~----------------|
Ab|----10s8--8s7-7s5------------10-10s8-8s7-7s5--/12--------------------------|
Gb|---------------------------------------------------------------------------|
Db|---------------------------------------------------------------------------|
Bb|---------------------------------------------------------------------------|
Eb|---------------------------------------------------------------------------|

That took a long time



************************************

p  pull off
h  hammer on
() optional
d  strum down
^  strum up
s  (or /)- slide
~  let ring

************************************
Suggest correction
comments
print report bad tab
5 comments total. Showing first comments.
0 reply
The Other Sid3 51 Oct 02, 2007 03:23 PM

Its basically right

0 reply
TremontiIsAGod 20 Aug 14, 2008 04:35 PM

i love seether's version of this song

0 reply
Jesse Wolfe 102 Jul 01, 2009 10:51 AM

what you have marked as the solos aren't the solos.thats the rhythem behind the solo.

guest
You may want to rate the tab now too:
select rating
Wanna post a correction for this tab? Suggest correction