Oops, an error
Loading. Please wait.

Innocence Tab

version 2
version 2

Whole song

717 views 3 this week
no commentswrite comment
1 2 3 4 5
please rate
add to favorites
launch autoscroll
font size
0
reset
how to read this tab
guitar tuner
Tab Pro tools
  • play this tab
  • loop segment
  • change instrument
  • show fretboard
  • metronome
×
Best way to learn
"Innocence"
Autoscroll
slow
fast
+/-
esc
set tempo
stop
Contributor
Difficulty
Tuning
novice
C# G# C# F# A# D#
Innocence
by:Seether
tabbed: josethejalapeno
I'm positive this is correct. Email for any mistakes.
nice-beard@hotmail.com

Verse/Intro:

Eb|-------------------------------------------------|
Bb|-------------------------------------------------|
Gb|--7---7---7-----------------2b-------------------|
Db|--7---7---7-2\3-3-3-3--2--2----------------------|
Ab|--5---5---5-2\3-3-3-3--2--2----------------------|
Db|------------2\3-3-3-3--2--2----------------------|

Chorus:

Eb|--x-x-x-x--------------------------------------------|
Bb|--x-x-x-x--3--3--------------------------------------|
Gb|--x-x-x-x--2--2---5-5-5-5-5--------------------------|
Db|--x-x-x-x--0--0---5-5-5-5-5-7--7-7--7\10-10-10-10-9--|
Ab|--x-x-x-x--0--0---3-3-3-3-3-7--7-7--7\10-10-10-10-9--|
Db|--x-x-x-x--0--0-------------7--7-7--7\10-10-10-10-9--|

After Chorus:

Eb|------------------------------------------------|
Bb|------------------------------------------------|
Gb|------------------------------------------------|
Db|-0~-3-5-3-2--------7~-10-12-10-9----------------|
Ab|------------------------------------------------|
Db|------------------------------------------------|

Repeat Verse
Repeat Chorus

Bridge/Outro:

Eb|------------------------------------------------|
Bb|-------------------15----15---15----------------|
Gb|-2~--5h7p5--12--14----14---14-------------------|
Db|------------------------------------------------|
Ab|------------------------------------------------|
Db|------------------------------------------------|

Eb|------------------------------------------------|
Bb|-------------8--10------------------------------|
Gb|--2~--5h7p5-------------------------------------|
Db|------------------------------------------------|
Ab|------------------------------------------------|
Db|------------------------------------------------|

Eb|------------------------------------------------|
Bb|-------------------15----15---15----------------|
Gb|-2~--5h7p5--12--14----14---14-------------------|
Db|------------------------------------------------|
Ab|------------------------------------------------|
Db|------------------------------------------------|

Eb|------------------------------------------------|
Bb|------------------------------------------------|
Gb|-2~--5h7p5--0-2---------------------------------|
Db|------------------------------------------------|
Ab|------------------------------------------------|
Db|------------------------------------------------|

Repeat Chorus


Solo: X2
(Play Chorus under solo)

on the last 16 of the first part of the solo bend it up and down fast. 
listen to the song for timing.

Eb|-------------------------------------------------|
Bb|---------------------------------17--------17----|
Gb|-13h14p13--13----13-14-16---16b------16b-----16b-|
Db|--------------16---------------------------------|
Ab|-------------------------------------------------|
Db|-------------------------------------------------|

Eb|-------------------------------------------------|
Bb|-------------------------------------------------|
Gb|-13h14p13--13----17------------------------------|
Db|--------------16-----14--------------------------|
Ab|-------------------------------------------------|
Db|-------------------------------------------------|

Repeat Bridge/Outro

Song Order:
Verse/Intro
Chorus
After Chorus
Verse
Chorus
Bridge/Outro
Chorus
Solo
Outro/Bridge
comments
We did not receive enough feedback on this tab! Please rate:
print report bad tab
1 2 3 4 5
I want to post or [tab]
guest
You may want to rate the tab now too:
select rating
Please do not post tabs as comments. Select "correction" instead!