Oops, an error
Loading. Please wait.

Ive Got You Under My Skin Tab

version 1
version 1

Whole song

1,151 views 3 this week
3 commentsread comments
1 2 3 4 5
please rate
add to favorites
launch autoscroll
font size
0
reset
how to read this tab
guitar tuner
Autoscroll
slow
fast
+/-
esc
set tempo
stop
Help us to improve Ultimate-Guitar.com Take our survey!
×
Author
Difficulty
Tuning
novice
C# G# C# F# A# D#
Most of this tab is the rhythm guitar to the song. Very simple song to play. Played on 
Drop C#. Its a Seether Frank Sinatra Cover from the album "His Way, Our Way"

Intro: 0 - 0:43
--------------------------|
--------------------------|
--------------------------|
-3---------2--------------|
-3---------0--------------|
-3---------0   Repeat x 6-|

Solo: 0:43 - 1:00
----------------------------------------------|
------14-------14-------15-15-------15-15-15--|
11-12----11-12----11-12-------11-12-----------|
----------------------------------------------|
----------------------------------------------|
----------------------------------------------|   Repeat x 2

Verse: 1:00 - 1:28
---------------------------------|
---------------------------------|
---------------------------------|
-3-3-3-3-3-3-3---2-2-2-2-2-2-2---|
-3-3-3-3-3-3-3---0-0-0-0-0-0-0---|
-3-3-3-3-3-3-3---0-0-0-0-0-0-0---| Repeat x 4

Chorus: 1:28 - 1:57
---------------------------------|
---------------------------------|
---------------------------------|
-3-3-3-3-3-3-3---2-2-2-2-2-2-2---|
-3-3-3-3-3-3-3---0-0-0-0-0-0-0---|
-3-3-3-3-3-3-3---0-0-0-0-0-0-0---| Repeat x 4

Intermission: 1:57 - 2:55
--------------------------|
--------------------------|
--------------------------|
-3---------2--------------|
-3---------0--------------|
-3---------0   Repeat x 8-|

Chorus: 2:55 - 3:53
---------------------------------|
---------------------------------|
---------------------------------|
-3-3-3-3-3-3-3---2-2-2-2-2-2-2---|
-3-3-3-3-3-3-3---0-0-0-0-0-0-0---|
-3-3-3-3-3-3-3---0-0-0-0-0-0-0---| Repeat x 8

Ending: 3:53 - End
--------------------------|
--------------------------|
--------------------------|
-3---------2--------------|
-3---------0--------------|
-3---------0   Repeat x 4-|
Suggest correction
What's this?
You can suggest a correction to this tab. Community and Mods will review your correction and vote to approve or reject it.
comments
We did not receive enough feedback on this tab! Please rate:
print report bad tab
1 2 3 4 5
3 comments total.
0 reply
Chrisseg 38 wrote on May 21 2012, 12:37 pm

nice tab but 3rd fret on the bottom 3 strings sounds totally wrong to me. it should be 5th fret.

0 reply
edfen7 243 wrote on May 22 2012, 08:58 pm

To Chrisseg,
I did not actually mean to play the bottom 3 strings. It was just to look neat. BTW I made this tab a while back and rushed it. The tuning may be off and the solo is not exact.

0 reply
BigBalls17 515 wrote on June 11 2015, 02:52 pm

Lack of accuracy. The intro, the verse and the chorus are wrong! Wrong chords and wrong notes on that. I am sorry but it's clearly all wrong!

guest
You may want to rate the tab now too:
select rating
Please do not post tabs as comments. Select "correction" instead!