Oops, an error
Loading. Please wait.

Karma And Effect Bass Tab

1,619 views 1 this week
2 commentsread comments
1 2 3 4 5
accurate
x 3
add to favorites
launch autoscroll
font size
0
reset
guitar tuner
Autoscroll
slow
fast
+/-
esc
set tempo
stop
Help us to improve Ultimate-Guitar.com Take our survey!
×
Author
Seether - "Karma and Effect"
Released May 29th 2005
Bassist - Dale Stewart

Track Listing and Tabber
1. Because of Me - Bass Pants
2. Remedy - Bass Pants
3. Truth - Bass Pants
4. The Gift - Bass Pants
5. Burrito - Bass Pants
6. Given - Bass Pants
7. Never Leave - Bass Pants
8. World Falls Away - Bass Pants
9. Tongue - Bass Pants
10. I'm The One - Bass Pants
11. Simplest Mistake - Bass Pants
12. Diseased - Bass Pants
13. Plastic Man - Bass Pants *this song normally does not have bass*


"Because of Me"
Drop D, half step down tuning

intro x1
|---------|
|---------|
|---------|
|--0-3-3--|

intro x2
|----------------------------------------------|
|----------------------------------------------|
|---------3---------3-----3---------3----------|
|-0h2-0h2---0h2-0h2---0h2---0h2-0h2--0h2-0-2-3-|
x2
|----------------------------------------------|
|----------------------------------------------|
|----------------------------------------------|
|-0h2-0h2---0h2-0h2---0h2---0h2-0h2--0h2-0-2-3-|

verse
|-----------------------------|
|-----------------------------|
|-------------3-----------3---|
|---0-----xx----0-----xx------|

Verse Part 2 x2
|------------------------------|
|------------------------------|
|---------------------------3--|
|-0h2-0h2--0h2-0h2---0h2-0h2---|

Pre-Chorus
|----------------------------|
|----------------------------|
|--------------3-----------3-|
|-0----0----xx---0----0------|

Chorus x3         (do the last part for the 4th time instead of the h's and p's)
|------------------------------------------|----------|
|------------------------------------------|----------|
|------------------------------------------|----------|
|-2-0-2-0-2-0--10-10--5-5-5h7h5p0----------|-7-7-5----|

Post Chorus x2
|----------------------------------------------|
|----------------------------------------------|
|----------------------------------------------|
|-0h2-0h2---0h2-0h2---0h2---0h2-0h2--0h2-0-2-3-|

Verse
Verse Part 2 x2
Pre-Chorus

Solo x6
|---------------------|
|---------------------|
|---------3-----3-----|
|-0h2-0h2---0h2---2-2-|

Chorus x2 (the whole thing)
Intro x2

“Remedy”

Drop D

Intro
|---|-------------|
|---|-------------|
|---|-------------|
|-2—|-0-2-2-0-5-2-| x8

Verse
|---------------------|
|---------------------|
|---------------------|
|-2~---0~---2~---5~---| x8

Pre-Chorus
|-------------------------|
|-------------------------|
|-------------------------|
|-7-7-7-7-7-7-7-7-3-3-3-3-| x1

Chorus (all x2)
|---|-------------|    |-----------------------------------------------------------|
|---|-------------|    |-----------------------------------------------------------|
|---|-------------|    |-----------------------------------------------------------|
|-2—|-0-2-2-0-5-2-| x3     |7---7-7-5-5-0-| play the first 7 instead of the last 2-|

Verse
Pre-Chorus

Chorus (all x4)

Bridge x2
|-----------------------------------------------------------------|
|-----------------------------------------------------------------|
|-3-3-3-3-3-3-3-3-0-0-0-0-0-0-0-0-3-3-3-3-3-3-3-3-----------------|
|-------------------------------------------------2-2-2-2-2-2-2-2-|

Intro x4
Chorus x8


"Truth"

Db,A,D,G

Intro No Bass

Riff
G |-----------------------------|
D |-----------------------------|
A |-----------------------------|
Db|--6-5---5-5-4--4-4-3--2-0-3--| x2

Verse x 4
G |------------------------------|
D |------------------------------|
A |--1----4---4-----8------------|
Db|---------------------1-1-3-0--| 

Riff

Chrous x 4
G |--------------------------------|
D |--------------------------------|
A |--1----4---4-----8--------------|
Db|-----------------------5-1-3-1--|

Verse x 4

Riff

Chrous x 4

Bridge x 4
G |-------------------------------------|
D |-------------------------------------|
A |-------------------------------------|
Db|--0-0-0-0---0-0-0---3-3-3-3---3-3-3--|

Chrous

Riff

Ending
G |------------------------------|
D |------------------------------|
A |------------------------------|
Db|--6-5---5-5-4--4-4-3--2-0-3~--|

"The Gift"
Tuning: Db, Ab, Db, Gb

Intro x2 (on repeat stop at the bend)
Gb|-------------------------------------------------------------14--12--------------------|
Db|----12--14--12---------12--14h15p14----------------------------------15--14b--------12-|
Ab|-12------------12--10----------------15-----15-------15------------------------15------|
Db|-----------------------------------------15------15------15----------------------------|

Verse
Gb|-------------------------------------------------|
Db|-5---3---7---5---3---7---5---3---7---5---3---5-7-|
Ab|-------------------------------------------------|
Db|-------------------------------------------------|

Pre-Chorus
Gb|---------------------4h5------------------------------------------------|
Db|-5--5--5-5-5-5/7-7-7-----3-3--3--3-3--3--3--3-3--3-3--3-5-7--5-5-5-5--5-|
Ab|------------------------------------------------------------------------|
Db|------------------------------------------------------------------------|

Gb|----------4h5---------------------------------------|
Db|5/7--7-7-------3-3-3--3-3-3--3-3--3-3--3--3-3--3--5-|
Ab|----------------------------------------------------|
Db|----------------------------------------------------|

Chorus
Gb|------------------------------------------------------------------------|
Db|------------------------------------------------------------------------|
Ab|-3-3--3-3--3-3----------------------------------------------------------|
Db|----------------5-5--5-5--5-5--3-3--3-3--3-3--3-3--3-3--3-3--7-7--7-7-7-|

Gb|------------------------------------------------------------------------|
Db|------------------------------------------------------------------------|
Ab|------------------------------------------------3-3--3-3--3-3-----------|
Db|7--5-5--5-5--5-5--3-3--3-3--3-3--3-3--3-3--3-3---------------5-5--5-5--5|

Gb|---------------------------------------------------------------------|
Db|---------------------------------------------------------------------|
Ab|---------------------------------------------------------------------|
Db|-5--3-3--3-3--3-3--3-3--3-3--3-3--5-5--5-5--5-5--7-7--7-7--9-10-3-3--|

Gb|--------------|
Db|--------------|
Ab|--------------|
Db|-3-3--3-3--3~-|


Intro

Verse

Pre-Chorus

Chorus

Solo x2 (on repeat let the 7th 3 ring instead of playing them all)
Gb|-------------------------------------------------------------|
Db|-------------------------------------------------------------|
Ab|-------------------------------------------------------------|
Db|-7-7--7-7--7-7--5-5--5-5--5-5--3-3--3-3--3-3--3-3--3-3--3-3--|

Chorus x2
Solo x3 (on the last run through let the 7th 3 ring)


“Burrito”

Intro                          x4
G |------------------------------|
D |------------------------------|
A |------------------------------|
Db|--0000--0000--0000--0000-6666-|

Verse     0:23
G |---------------------------------------------------|
D |---------------------------------------------------|
A |---------------------------------------------------|
Db|--0-is repeated in a non-steady pattern,very muted-|

PreChorus 0:55          
G |-----------------------|
D |-----------------------|
A |-----------------------|
Db|--8888-8888-0000-0000--| 

Chorus    1:10              
G |-------------------------------------------------------------|
D |-------------------------------------------------------------|
A |----------------11-10----------11-10---------11-10-----------|
Db|--8888-8888-0-0--------12--0-0-------12--0-0-------12--8888--|

Verse     1:21
G |---------------------------------------------------|
D |---------------------------------------------------|
A |---------------------------------------------------|
Db|--0 is repeated in a non-steady pattern,very muted-|

PreChorus 1:53          

Chorus    2:04              

Bridge    2:20 
G |-------------|
D |-------------|
A |-------------|
Db|--00~00~000--|

Intro     2:36                  x4

PreChorus 2:57          

Chorus    3:08            play this section twice
G |------------|-------------------------------------------------|
D |------------|-------------------------------------------------|
A |------------|----11-10----------11-10---------11-10-----------|
Db|--8888-8888--0-0--------12--0-0-------12--0-0-------12--8888--|


Outro     3:34                  
G |------------------------------------7----------------------------|
D |-----------------------------------------------------------------|
A |-----------------------------------------------------------------|
Db|-0000-6-0-0000-6-0-0000-6-0-0000-6-0--0000-6-0-0000-6-0-0000-6-0-|

G |----|
D |----|
A |----|
Db|-0~-|


“Given”

Drop D

Verse
|----------------------------------|
|----------------------------------|
|----------------------------------|
|-0-2-2~--2-4-4~---4-6-6~---6-7-7~-| x4

Chorus
|-------------------------------|
|-------------------------------|
|-------------------------------|
|--6-6~-6-9-9~--9-7-7~--7-7-7~--| x2

End of Chorus
|-----------------|
|-----------------|
|-----------------|
|-0h5-0-5-0h5-4-5-|

After Chorus
|--------------------------------------------------------|
|--------------------------------------------------------|
|--------5-3-5---------7-5-7---------3-5-3---------7-5-3-|
|-0-0-0-0------0-0-0-0-------0-0-0-0-------0-0-0-0-------|

Verse x4
Chorus 1 x2
Chorus 2 x2 (don't play the 12's on the repeat)
|-------------------------------------------------------------|
|-------------------------------------------------------------|
|-3-3-3-3-2-4-6-6-6-6-5-7-8-8-8-8-7-9-10-10-10-10-12-12-12-12-|
|-------------------------------------------------------------|

End of Chorus
After Chorus x4

Bridge x2
|------------------------------------------------------------------|
|------------------------------------------------------------------|
|---------7-7-7-7---------3-3-3-3----------7-7-7-7---------5/7-5---|
|-0-0-0-0---------0-0-0-0----------0-0-0-0---------0-0-0-0-------7-|

Solo
|-------------------------------------------|
|-----------------------------------5---5-5-|
|-0-0-0-0-0-0-0-0-3-3-3-3-3-3-3-3-3---------|
|-------------------------------------5-----| x2

End of Chorus x1
Chorus 1 x2
Chorus 2 x2
End of Chorus x1
After Chorus x4

“Never Leave"

Verse    0:15                                         x8
G |------------------------------------------------------|
D |-----------11-13-11~\-----------------13-14-13--------|
A |--------------------------12-14-12~/14----------14----|
Db|-10-12-0~~~------------8~~----------------------------|


Chorus   1:15                        x2
G |-------------------------------------|
D |-------------------------------------|
A |-4-4-4-4-4-4-4-4-4-0-0-0-0-0-0-0-0-0-|
Db|-------------------------------------|


Verse    1:30                                         x8
G |------------------------------------------------------|
D |-----------11-13-11~\-----------------13-14-13--------|
A |--------------------------12-14-12~/14----------14----|
Db|-10-12-0~~~------------8~~----------------------------|


Bridge   2:30                        x2
G|-------------------------------------|-----------------------------------|
D|-------------------------------------|-----------------------------------|
A|-4-4-4-4-4-4-4-4-4-0-0-0-0-0-0-0-0---|-4-4-4-4-4-4-4-4-------------------|
Db|------------------------------------|-----------------0-0-0-0-0-0-0-0-0-|
                                           Third Time                          (fourth time)
G|------------------------------------|-------------------------------|
D|------------------------------------|-------------------------------|
A|-9-9-9-9-9-9-9-9-2-2-2-2-2-2-2-2-2--|-9-9-9-9-9-9-9-9---------------|
Db|-----------------------------------|-----------------2-2-2-2-2-2-2-|

G |-------------------------------|
D |---------------13~--11~--------|
A |----------------------------7~-|
Db|--8~---12~~~-------------------|


Chorus   3:45  x2


Outro    4:34
G |------------------------------------------------------|
D |------------------------------------------------------|
A |--4-4-4-4-4-4-4-4-------------------2-2-2-2-2-2-2-2-2-|
Db|-------------------0-0-0-0-0-0-0-0--------------------|

“World Falls Away”

intro/prechorus
G ||-------------------------------------|
D ||-------------------------------------|
A ||-------------------------------------|
Db||---8888--8888--8888--8888------------|

chorus           0:08                  x2
G |--------------------------------------|
D |--------------------------------------|
A |--------------------------------------|
Db|---22x2-555-57-7777--22x2-555-50-0000-|

verse            0:23                  x2                    x4
G |--------------------------------------|---------------------|
D |--------------------------------------|---------------------|
A |--------------------------------------|---------------------|
Db|---22x2-5555----22x2-555-50-0000------|---22x2-555-50-0000--|

intro/prechorus  0:55

chorus           1:03                  x3

verse            1:26                  x2 then x4

intro/pre-chorus 1:57

chorus           2:05                  x4


Bridge           2:36                  x4
G |--------------------------------------|
D |--------------------------------------|
A |--------------------------------------|
Db|---8-8888-8-8p7-7777-0-0000-2-0-2-----|

G |--------------------------------------|
D |--------------------------------------|
A |--------------------------------------|
Db|---2-5-00--2-5-00--2-5-00--2-5-00-----|

G |--------------------------------------|
D |--------------------------------------|
A |--------------------------------------|
Db|---2~~~~~~------002----002----002-----|


chorus           3:23                  x7

Outro            4:26                  x2
G |--------------------------------------|----||
D |--------------------------------------|----||
A |--------------------------------------|----||
Db|---3333xx-1111xx-2222xx-5555xx--------|-2\-||

“Tongue”

Drop D

Verse
|-----------------------------|
|-----------------------------|
|-----------------------------|
|-0-0---0-3-3---3-0-0---0-3-3-| repeat the pattern until the pre-chorus

Pre-Chorus
G|-----|-----------------|--------------------|
D|-----|-----------------|--------------------|
A|-----|-2-2----2-2------|--------------------|
D|-7\3-|------5------5---|-7-7-7-7-7-7-7-7-3~-|

Chorus x2
G|-----------------------------------|
D|-----------------------------------|
A|-----------------------------------|
D|-2-2-2-2-5-5-5-5-0h2-2---2-0h2-2---|

Verse
Verse 2 verse ones pattern with all eighth notes
Pre-Chorus
G|-----|-----------------|-----------------------------------|
D|-----|-----------------|-----------------------------------|
A|-----|-2-2----2-2------|-----------------------------------|
D|-7\3-|------5------5---|-7-7-7-7-7-7-7-7-3-3-3-3-3-3-3-3-3-|
Chorus x4

Break x3
G|-----------------------------------------|
D|-----------------------------------------|
A|-----------------------------------------|
D|-5-5-5-5-5-5-5-5-5-5-5-5-2-2-0---2-2-0---|

|---------------------------|
|---------------------------|
|---------------------------|
|-7-7-7-7-7-7-7-7-3-3-3-3-3-|

Chorus x6
                                                                            Outro
G|--------------|
D|--------------|
A|-2-----2------|
D|---5------5---|

I’m The One
Db, A, D, G

Verse
   (lead in)                 x24 
G ||----------|-----------------------|
D ||----------|o---------------------o|
A ||----------|o---------------------o|
Db||--3-5-0-2-|----2-1-0-3-5-0-2------|


Chorus:
|--------------------------------------------------------------|
|--------------------------------------------------------------|
|-2~2-2-2-2-2-2-2-2-2-2-8-8-8-8-5~5-5-5-5-5-5-5-1-1-1----------|
|-----------------------------------------------------3-5-0-2--| x2

Verse/Pre-Chorus: X19

Chorus: X4

Bridge:
|---|-------------------------------|   |-------------------|
|---|*-----------------------------*|   |-------------------|
|---|*-----------------------------*|   |-------------------|
|-r-|-0-3-2-0-2-1-0-2-2-1-0-2-3-4-r-|X3 |-0-3-2-0-2-1-0-2-r-|

Chorus: X4
Verse/Pre-Chorus: X9


“Simplest Mistake”

Intro	x4
G |---------------------------------------------|
D |-----------------------------------------4---|
A |---2-4--3-----2-4--3----2-4--3----2-4--3-----|
Db|--0---0---5--0---0--5--0---0--5--0---0-------|


Verse  0:24   x4
G |-------------------------------|
D |--------------7---5---3--------|
A |------------9---7---5---3------|
Db|--0-0-0-0-0--------------------|


Chorus A  0:45                 1st       2nd
G |---------------------------------|-------------|-----------|
D |o--------------------------------|----------4--|----------o|
A |o----2-4--3----2-4--3----2-4--3--|---2-4---3---|----------o|
Db|----0---0--5--0---0--5--0---0--5-|--0—---0-----|--00-0-0---|


Verse  0:55 x4

Intro	1:16  x2

Chorus B  1:27  x3
G |---------------------------|
D |---------------------------|
A |------7~7~-2~2~-0~0~-0h2---|
Db|-0~0~----------------------|


Chorus A  1:48

Verse  1:58   x4

Intro  2:20   x2

Chorus B  2:31  x4

Bridge x4
G |--------------------------------------------------------|
D |--------------------------------------------------------|
A |--------------------------------------------2h3-5h6-8h9-|
Db|-0-0-0-0-0-0---0-0-0-0-0-0-0---0-0-0-0-0-0--------------|

G |--------------------------------------------------------|
D |--------------------------------------------------------|
A |--------------------------------------------4p3-6p5-9p8-|
Db|-0-0-0-0-0-0---0-0-0-0-0-0-0---0-0-0-0-0-0--------------|

Intro  3:37  x2

Chorus B  3:48  x8

Outro  4:30                  x11
G |------------------------------|--------------|
D |------------------------------|--------------|
A |------------------------------|--------------|
Db|--11-00-9-00-7-00-5-00-000343-|-end-on-0~~~--|

“Diseased”

Verse
G|--------------------------------------------------------------------|
D|--------------------------------------------------------------------|
A|--------------------------------------------------------------------|
E|-0-0---2-2---4-4---6-6-6-6-6-6--------x4----------------------------|

Break 1
G|--------------------------------------------------------------------|
D|--------------------------------------------------------------------|
A|--------------------------------------------------------------------|
E|-0~--2-4---4-2---2-4------------------------------------------------|

Scream Part
G|--------------------------------------------------------------------|
D|--------------------------------------------------------------------|
A|--------------------------------------------------------------------|
E|-00-0-0-0---x8------------------------------------------------------|

Pre Chorus
G|--------------------------------------------------------------------|
D|--------------------------------------------------------------------|
A|--------------------------------------------------------------------|
E|-0-0-0-0--0-0-2---4---x4--------------------------------------------|

Break 2
G|--------------------------------------------------------------------|
D|--------------------------------------------------------------------|
A|--------------------------------------------------------------------|
E|-0~---2-4---4-2-0---0-0-4-2-----------------------------------------|

Chorus
G|--------------------------------------------------------------------|
D|--------------------------------------------------------------------|
A|----------------------------------3---------------------------------|
E|-3/-5-5-5—-5/-7-7-7---7/8-8-8---5--5--5-5-5-5-5--3-3-3-3-3-----x2---|

Bridge
G|--------------------------------------------------------------------|
D|--------------------------------------------------------------------|
A|--------------------------------------------------------------------|
E|-8-8-8-8-8-8-4-4-4-4-4-4-------x4-----------------------------------|

Break 3
G|--------------------------------------------------------------------|
D|--------------------------------------------------------------------|
A|--------------------------------------------------------------------|
E|-0~--2-4------------------------------------------------------------|

Chorus x4
Scream Part x8

“Plastic Man”

Intro
Gb|--------2-1---------1--5—-1-----|
Db|----0-4------0---2------------2-|
Ab|---------------3----------------|
Db|--0-----------------------------| x8

Chorus
Gb|--------7-------------5------------------------| x2
Db|------5---5---5-----3---3---3------------------|
Ab|----5-------5-----3-------3---0----------------|
Db|--5-------------3------------------------------|

Verse x6
Gb|--------2-1---------1--5—-1-----|
Db|----0-4------0---2------------2-|
Ab|---------------3----------------|
Db|--0-----------------------------|

Chorus
Gb|--------7-------------5----------------------| x4
Db|------5---5---5-----3---3---3----------------|
Ab|----5-------5-----3-------3---0--------------|
Db|--5-------------3----------------------------|

Bridge
Gb|--------0-------------0--------|
Db|------0---0---0-----2---2---2--| x7
Ab|----2-------2-----2-------2----|
Db|--3-------------0--------------|

Gb|--------0-------------0--------|
Db|------0---0---0-----2----------|
Ab|----2-------2-----2------------|
Db|--3-------------0--------------|

Chorus x3
Gb|--------7-------------5------------------------|
Db|------5---5---5-----3---3---3------------------|
Ab|----5-------5-----3-------3---0----------------|
Db|--5-------------3------------------------------|

Outro
Gb|--------7-------------5------------------------|
Db|------5---5---5-----3---3---3------------------|
Ab|----5-------5-----3-------3---0----------------|
Db|--5-------------3------------------------------|
Suggest correction
What's this?
You can suggest a correction to this tab. Community and Mods will review your correction and vote to approve or reject it.
comments
We did not receive enough feedback on this tab! Please rate:
print report bad tab
1 2 3 4 5
2 comments total.
-1 reply
Bass Pants 1,818 wrote on August 3 2007, 11:16 pm

Major Update coming soon

-1 reply
Bass Pants 1,818 wrote on August 4 2007, 10:25 am

Update 1 complete

guest
You may want to rate the tab now too:
select rating
Please do not post tabs as comments. Select "correction" instead!