Oops, an error
Loading. Please wait.

Karma And Effect Tab

13,599 views 1 this week
9 commentsread comments
1 2 3 4 5
accurate
x 10
add to favorites
launch autoscroll
font size
0
reset
how to read this tab
guitar tuner
Autoscroll
slow
fast
+/-
esc
set tempo
stop
Help us to improve Ultimate-Guitar.com Take our survey!
×
Author
Seether - Karma And Effect

This is a brilliant album so i decided to tab the whole thing!
I believe all of this is tabed correctly, Plaese rate me!

Track 1 - Because of Me:

Tuning: Drop D Tuned Down 1/2 Step (Db)

<> - harmonics

INTRO
Part 1
Guitar 1
Eb|-----------------------------------------------|
Bb|-----------------------------------------------|
Gb|-----------------------------------------------|
Db|-----------------------------------------------|
Ab|---------3---------3-----3---------3-------2-3-|
Db|-0h2-0h2---0h2-0h2---0h2---0h2-0h2---0h2-2-2-3-|

Eb|-----------------------------------------------|
Bb|-----------------------------------------------|
Gb|-----------------------------------------------|
Db|-----------------------------------------------|
Ab|---------3---------3-----3---------3-----xx----|
Db|-0h2-0h2---0h2-0h2---0h2---0h2-0h2---0h2-xx----|

INTRO - Part 2
Both Guitars    2x
Eb|-----------------------------------------------|
Bb|-----------------------------------------------|
Gb|-----------------------------------------------|
Db|-----------------------------------------------|
Ab|---------3---------3-----3---------3-------2-3-|
Db|-0h2-0h2---0h2-0h2---0h2---0h2-0h2---0h2-2-2-3-|

INTRO
Part 3
Guitar 1
Eb|-------------------------------------------------------|
Bb|-------------------------------------------------------|
Gb|-------------------------------------------------------|
Db|-------------------------------------------------------|
Ab|---------------------------------------------------2-3-|
Db|-0h2-0h2-----0h2-0h2-----0h2-----0h2-0h2-----0h2-2-2-3-|

Guitar 2
Eb|-------------------------------------------------------|
Bb|-------------------------------------------------------|
Gb|---------<5>---------<5>-----------------<5>-----------|
Db|-----------------------------<5>-----------------------|
Ab|---------------------------------------------------2-3-|
Db|-------------------------------------------------2-2-3-|

VERSE
Guitar 2
Eb|---0-------------0--------|
Bb|----0-------------0-------|
Gb|--------------------------|
Db|--------------------------|
Ab|2--------xx--3-2------3---|
Db|2--------xx--3-2------3---|

VERSE
Part 2       2x
Guitar 1
Eb|----------------------------|
Bb|----------------------------|
Gb|----------------------------|
Db|-2222---222--2222---222-3---|
Ab|-2222---222--2222---222-3---|
Db|-2222---222--2222---222-3---|

Guitar 2
Eb|----------------------------|
Bb|----------------------------|
Gb|-9999---999--9999---999-10--|
Db|-xxxx---xxx--xxxx---xxx-x---|
Ab|-7777---777--7777---777-8---|
Db|----------------------------|

VERSE
Part 3
Both Guitars
Let the open notes ring.  Sounds like there might be a very very slight palm mute on the 
chords.

Eb|---0-----0----------0-----0----|
Bb|----0-----0----------0-----0---|
Gb|-------------------------------|
Db|-------------------------------|
Ab|2------2----xx--3-2-----2----3-|
Db|2------2----xx--3-2-----2----3-|

CHORUS
Part 1
Both Guitars   2x
Eb|-----------------------------|
Bb|-----------------------------|
Gb|-----------------------------|
Db|2-0-2-0-2-0-------5-5-5750---|
Ab|2-0-2-0-2-0-10-10-5-5-5750---|
Db|2-0-2-0-2-0-10-10-5-5-5750---|

CHORUS
Part 2
Guitar 1
Eb|-------------------------------------------------------|
Bb|-------------------------------------------------------|
Gb|-------------------------------------------------------|
Db|2-0-2-0-2-0-------5-5-5750--2-0-2-0-2------------------|
Ab|2-0-2-0-2-0-10-10-5-5-5750--2-0-2-0-2-101010s12--------|
Db|2-0-2-0-2-0-10-10-5-5-5750--2-0-2-0-2-101010s12-12s<<<-|

Guitar 2
Eb|--------------------------------------------------------|
Bb|--------------------------------------------------------|
Gb|9-7-9-7-9-7-12-12-7-7-797--9-7-9-7-9-7-121212-14--------|
Db|x-x-x-x-x-x-x--x--x-x-xxx--------------x-x-x--x---------|
Ab|7-5-7-5-7-5-10-10-5-5-575--7-5-7-5-7-5-101010s12--------|
Db|-------------------------------------------------12s<<<-|

Post CHORUS
Part 1
Both Guitars
Eb|-----------------------------------------------|
Bb|-----------------------------------------------| x2
Gb|-----------------------------------------------|
Db|-------------------------------------------2-3-|
Ab|---------3---------3-----3---------3-------2-3-|
Db|-0h2-0h2---0h2-0h2---0h2---0h2-0h2---0h2-2-2-3-|

Post CHORUS
Part 2
Guitar 1
Eb|-------------------------------------------------------|
Bb|-------------------------------------------------------|
Gb|-------------------------------------------------------|
Db|-------------------------------------------------------|
Ab|---------------------------------------------------2-3-|
Db|-0h2-0h2-----0h2-0h2-----0h2-----0h2-0h2-----0h2-2-2-3-|

Guitar 2
Eb|-------------------------------------------------------|
Bb|-------------------------------------------------------|
Gb|---------<5>---------<5>-----------------<5>-----------|
Db|-----------------------------<5>-----------------------|
Ab|---------------------------------------------------2-3-|
Db|-------------------------------------------------2-2-3-|

VERSE
Parts 1, 2, 3
CHORUS
Parts 1 2

BRIDGE/SOLO
Guitar 1        6x  (1st 2 times alone)
Eb|----------------------------------------|
Bb|----------------------------------------|
Gb|------4-------4----------4------4-------|
Db|------4-------4----------4------4-------|
Ab|------3-------3-x44------3------3-x33---|
Db|5p4p0---5p4p0---x44-5p4p0--5p4p0--x33---|

Guitar 2     2x


Eb|10h12p10h12p10h12p10h12p10h1210h12-12~-10h12p10h12p10h12p10h12p10h12p10|
Bb|-----------------------------------------------------------------------|
Gb|-----------------------------------------------------------------------|
Db|-----------------------------------------------------------------------|
Ab|-----------------------------------------------------------------------|
Db|-----------------------------------------------------------------------|

Guitar 2 cont.              Played only the 2nd time around - vvvvvvv
Eb|----------------------------------------12h14p12h14p12h14----------|
Bb|-6h8p6h8p6h8p6h8p6h8p6h8-9-6h8p6h8p6h8-----------------------------|
Gb|----------------------------------------------------------<5>---<4>|
Db|-------------------------------------------------------------<5>---|
Ab|-------------------------------------------------------------------|
Db|-------------------------------------------------------------------|

CHORUS
Both Guitars   3x
Eb|-----------------------------|
Bb|-----------------------------|
Gb|-----------------------------|
Db|2-0-2-0-2-0-------5-5-5750---|
Ab|2-0-2-0-2-0-10-10-5-5-5750---|
Db|2-0-2-0-2-0-10-10-5-5-5750---|

Both Guitars   1x
Eb|---------------------------------|
Bb|---------------------------------|
Gb|---------------------------------|
Db|2-0-2-0-2-0----------------------|
Ab|2-0-2-0-2-0-10-10-10s5-5-5-5750--|
Db|2-0-2-0-2-0-10-10-10s5-5-5-5750--|

Guitar 1     2x
                   This played only the 1st time --- vvv
Eb|------------------------------------------------------|
Bb|------------------------------------------------------|
Gb|------------------------------------------------------|
Db|2-0-2-0-2-0-------5-5-5750--2-0-2-0-2-0-----------xxx-|
Ab|2-0-2-0-2-0-10-10-5-5-5750--2-0-2-0-2-0-101010s12-xxx-|
Db|2-0-2-0-2-0-10-10-5-5-5750--2-0-2-0-2-0-101010s12-xxx-|

Guitar 2     2x
                   This played only the 1st time --- vvv
Eb|------------------------------------------------------|
Bb|------------------------------------------------------|
Gb|9-7-9-7-9-7-12-12-7-7-797---9-7-9-7-9-7-121212-14-----|
Db|x-x-x-x-x-x-x--x--x-x-xxx---x-x-x-x-x-x-x-x-x--x--xxx-|
Ab|7-5-7-5-7-5-10-10-5-5-575---7-5-7-5-7-5-101010s12-xxx-|
Db|--------------------------------------------------xxx-|

OUTRO
Both Guitars
Eb|---------------------------------------------|
Bb|---------------------------------------------|
Gb|-----------4-------4----------4------4-------|
Db|-----------4-------4----------4------4-------|
Ab|-----------3-------3-x44------3------3-x33---|
Db|12<<-5p4p0---5p4p0---x44-5p4p0--5p4p0--x33---|

Track 2 - Remedy:

Tuning: Drop D Tuned Down 1/2 Step (Db)

qb - quarter bend
hb - half bend
fb - full bend
r - release
h - hammer-on
p - pull-off
X - Mute string
~ - vibrate
PM - palm mute


Main Riff
|----------------|
|----------------|
|----------------|
|-2--X-0-2-2-0-5-|
|-2--X-0-2-2-0-5-|
|-2--X-0-2-2-0-5-|

Intro (harmonics)
|---|------------------|
|-4-|----------4-------|
|---|----------------4-|
|---|--------------5---|
|---|------------------|
|---|------------------|

Giddy over intro (I fixed this part)
|-------------------|----------------------|
|-12----12-12-9--10-|----15----15-15-13-12-|
|-14fb--14-14-10-12-|----17fb--17-17-15-14-|
|-------------------|-X3-------------------|
|-------------------|----------------------|
|-------------------|----------------------|

Verse Riff(clean)
|---------------------------------|
|---------------------------------|
|---------------------------------|
|-----2-------0-------2-------5---|
|---2---2---0---0---2---2---5---5-|
|-2-------0-------2-------5-------|

On top of riff(clean)

|----------|
|-10-12~~~-|
|----------|
|----------|
|----------|
|----------|

Bridge("if you want me hold me back")
|-----------------|
|-----------------|
|-----------------|
|-7777777733333---|
|-7777777733333---|
|-7777777733333---|

|-----------------|
|-----------------|
|---------------4-|
|-----------------|
|-----------------|
|-----------------|
                *Harmonic

Chorus
|----------------|------------------|
|----------------|------------------|
|----------------|------------------|
|-2--X-0-2-2-0-5-|-X3-7--X-7-7-5-5--|
|-2--X-0-2-2-0-5-|----7--X-7-7-5-5--|
|-2--X-0-2-2-0-5-|----7--X-7-7-5-5--|

Verse 2(distorted)
|---------------------------------|
|---------------------------------|
|---------------------------------|
|-----2-------0-------2-------5---|
|---2---2---0---0---2---2---5---5-|
|-2-------0-------2-------5-------|
PM___   _____   _____   _____   _

On top of riff(clean)

|----------|
|-10-12~~~-|
|----------|
|----------|
|----------|
|----------|

Verse 3
|---------------------------------|
|---------------------------------|
|---------------------------------|
|-7-7-7-7-7-7-7-7-5-5-5-5-5-0-0-0-| X4
|-7-7-7-7-7-7-7-7-5-5-5-5-5-0-0-0-|
|-7-7-7-7-7-7-7-7-5-5-5-5-5-0-0-0-|

(Main verse 4 times palm muted, w/intro harmonic riff)

Solo (again, LOTS of overdrive and distortion to make it sound right)
|-------------------|----------------------|
|-12----12-12-9--10-|----15----15-15-13-12-|
|-14fb--14-14-10-12-|----17fb--17-17-15-14-|
|-------------------|-X3-------------------|
|-------------------|----------------------|
|-------------------|----------------------|

|--------------------------------|
|-12---12---12---12---12---9--10-|
|-14fb-14fb-14fb-14fb-14fb-11-12-|
|--------------------------------|
|--------------------------------|
|--------------------------------|

|-----------------------------------|
|-12---12---12---12---15---15-15-15-|
|-14fb-14fb-14fb-14fb-17fb----------|
|-----------------------------------|
|-----------------------------------|
|-----------------------------------|

Track 3 - Truth

Tuning: Drop D Tuned Down 1/2 Step (Db)

VERSE

"If I gave you the truth..."
eb-------------------------|
Bb-------------------------|
Gb------4-------4----------|
Db----4---4-------4-----4~-|
Ab--2---------2-------0----|
Db----------2-------0------|

RIFF 1
"You're so much more than me..."
\--------------------------------------------------|
\--------------------------------------------------|
\-----------------------------------------------7--|
\--10-9--0-0---0-9-7--0-0---0-7-5--0-0---2--0-0-7--|
\--10-9--0-0---0-9-7--0-0---0-7-5--0-0---2--0-0-5--|
\--10-9--0-0---0-9-7--0-0---0-7-5--0-0---2--0-0----|


"No there's nothing you say..."

Guitar 1
eb-------------------------|
Bb-------------------------|
Gb------4-------4----------|
Db----4---4-------4-----4~-|
Ab--2---------2-------0----|
Db----------2-------0------|

Guitar 2
\--------------|
\--------------|
\--4-----------|
\--4--2--5--0--|
\--2--2--5--0--|
\-----2--5--0--|

RIFF 1

CHORUS

"I'm beaten down again..."
\-----------------------------------|
\-----------------------------------|
\--4-4-4-4--------------------------|
\--4-4-4-4-2-2-2-2-5-5-5-5-0-0-2-0--|
\--2-2-2-2-2-2-2-2-5-5-5-5-0-0-2-0--|
\----------2-2-2-2-5-5-5-5-0-0-2-0--|

VERSE
RIFF 1
CHORUS

BRIDGE

Guitar 1
\------------------|
\------------------|
\------------------|
\--2-2-2-2-5-5-5-5-|
\--2-2-2-2-5-5-5-5-|
\--2-2-2-2-5-5-5-5-|

Guitar 2
\-------------------------------------------------------------14--15-14-14--|
\--10^10-----------------------------------10-10^10-------------------------|
\--------12-11--12-11-11--12----9---9-9-12----------12-11--12---------------|
\----------------------------12---------------------------------------------|
\---------------------------------------------------------------------------|
\---------------------------------------------------------------------------|

Verse riff once

CHORUS

ENDING

"I'm beaten down!"

Guitar 1
\-----------------------------------|
\-----------------------------------|
\--4-4-4-4--------------------------|
\--4-4-4-4-2-2-2-2-5-5-5-5-0-0-2-0--|
\--2-2-2-2-2-2-2-2-5-5-5-5-0-0-2-0--|
\----------2-2-2-2-5-5-5-5-0-0-2-0--|

Guitar 2
\--------------------------------------10-------|
\--12---12-10-12---12-10-12---12-10-12----12-10-|
\-----------------------------------------------|
\-----------------------------------------------|
\-----------------------------------------------|
\-----------------------------------------------|

Track 4 - The Gift:

Tuning: Drop D Tuned Down 1/2 Step (Db)

Intro/verses—clean on this part

e|------------------------------------------------------------------------------|
B|------------------------------------------------------------------------------|
G|-------------4----------------3---------------1---1---------------------------|
D|-------6--------6--------4-------4---------2---------4---2--------4---2-------|
A|----6----(6)-------6---4---(4)------4----2-------------------(2)--------------|
D|------------------------------------------------------------------------------|

e|------------------------------------------------------------------------------|
B|-----------------------------------------------------------------4------------|
G|------------4------------------3--------------1----1-------------4------------|
D|------6-------6--------4----------4---------2---------4---2-------------------|
A|---6-----(6)-----6---4-----(4)-------4---2------------------------------------|
D|------------------------------------------------------------------------------|

Play that twice; while that is playing the second time, pat plays this (twice)
e|-----------------------------------------------------------------------------|
B|----/11--------/9------------------------------------------------------------|
G|---------11--------8-----/11---let ring--------------------------------------|
D|-----------------------------------------------------------------------------|
A|---------USE DISTORTION ON THIS PART-----------------------------------------|
D|-----------------------------------------------------------------------------|

Pre-chorus thing(clean): "I'm out of reason to believe in me..."
e|---------------------------------------------------------------------------|
B|---------------------------------------------------------------------------|
G|---6------8----------------------------------------------------------------|
D|---4------6-----------2----------------------------------------------------|
A|---4------6-----------2----------------------------------------------------|
D|---4------6----(9)----2----------------------------------------------------|

e|---------------------------------------------------------------------------|
B|----/12-----------------------/12------------------------------------------|
G|---------9----11-----9----8--------9-----11h13p11--------------------------|
D|---------------------------------------------------------------------------|
A|--------------DISTORTION---------------------------------------------------|
D|---------------------------------------------------------------------------|

Twice through on the prechorus and then this chorus with distortion:
e|---------------------------------------------------------------------------|
B|---------------------------------------------------------------------------|
G|---4-4-4-4-4---------------------------------------------------------------|
D|---4-4-4-4-4--4-4-4-4-4--2-2-2-2-2------66666----44444---22222-------------|
A|---2-2-2-2-2--4-4-4-4-4--2-2-2-2-2------66666----44444---22222-------------|
D|--------------4-4-4-4-4--2-2-2-2-2------66666----44444---22222-------------|

e|---------------------------------------------------------------------------|
B|---------------------------------------------------------------------------|
G|--44444--------------------------------------------------------------------|
D|--44444--44444---22222----------44444---66666---22222----------------------|
A|--22222—-44444---22222----------44444---66666---22222----------------------|
D|---------44444---22222----------44444---66666---22222----------------------|

Last little solo thing...this is played for the last minute or so of the song
e|---------------------------------------------------------------------------|
B|-/12-----------------------------------------------------------------------|
G|-----9---11--9--8--9--8------------------11b---8\6-------------------------|
D|------------------------11---9--8----/11b-------------9--------------------|
A|---------------------------------------------------------------------------|
D|-----------------AGAIN, DISTORTION!!---------------------------------------|

Track 5 - Burrito:

Tuning: Drop D Tuned Down 1/2 Step (Db)

INTRO - Play twice
Guitar 1 - Dist.
eb|-------------------------------------------|
Bb|-------------------------------------------|
Gb|-------------------------------------------|
Db|--0-0--0--0-0-0--0--0-0--0--0-0-0--0--6666-|
Ab|--0-0--0--0-0-0--0--0-0--0--0-0-0--0--6666-|
Db|--0-0--0--0-0-0--0--0-0--0--0-0-0--0--6666-|

Guitar 2 - Dist.
eb|-------------------------------------------|
Bb|-------------------------------------------|
Gb|----------7s5s7-------7s10s7----7-5-7------|
Db|----------x-x-x-------x-x--x----x-x-x-6666-|
Ab|----------5s3s5-------5s8-s5----5s3s5-6666-|
Db|--------------------------------------6666-|

Guitar 1
eb|---------------------------------------------|
Bb|---------------------------------------------|
Gb|-----------------------------------------7s8-|
Db|--0-0--0--0-0-0--0--0-0--0--0-0-0--0-----x-x-|
Ab|--0-0--0--0-0-0--0--0-0--0--0-0-0--0-----5s6-|
Db|--0-0--0--0-0-0--0--0-0--0--0-0-0--0--65-----|
                                         ..
Guitar 2
eb|---------------------------------------------|
Bb|---------------------------------------------|
Gb|----------7s5s7-------7s10s7----7-5-7----7s8-|
Db|----------x-x-x-------x-x--x----x-x-x----x-x-|
Ab|----------5s3s5-------5s8-s5----5s3s5----5s6-|
Db|--------------------------------------65-----|
                                         ..
VERSE
Guitar 1 - Dist.
eb|------------------------------------------------------------------|
Bb|------------------------------------------------------------------|
Gb|------------------------------------------------------------------|
Db|------------xx-------------------------xx-------------------------|
Ab|------------xx-------------------------xx-------------------------|
Db|0-----------xx--------------0----------xx-------------------------|

Guitar 2 - Slight Dist. with some delay
eb|------------------------------------------------------------------|
Bb|------------------------------------------------------------------|
Gb|---------------10---10---------------------10----101010-101010-12~|
Db|---8-7-5---------8----8--(8)---8-7-5---------8--------------------|
Ab|----------5--------------------------5----------------------------|
Db|------------------0----0----------------------(0)-----------------|

Guitar 1 - Dist.
eb|----------------------------------------------------------------|
Bb|----------------------------------------------------------------|
Gb|----------------------------------------------------------------|
Db|------------xx-------------------------xx-----------------------|
Ab|------------xx-------------------------xx-----------------------|
Db|0-----------xx--------------0----------xx-----------------------|

Guitar 2 - Slight Dist. with some delay
eb|----------------------------------------------------------------|
Bb|----------------------------------------------------------------|
Gb|---------------10---10---------------------10----1010-101010-12~|
Db|---8-7-5---------8----8--(8)---8-7-5---------8------------------|
Ab|----------5--------------------------5--------------------------|
Db|------------------0----0-----------------------0----------------|

Guitar 1 - Dist.
eb|-----------------------------------------------------------------|
Bb|-----------------------------------------------------------------|
Gb|-----------------------------------------------------------------|
Db|------------xx-------------------------xx------------------------|
Ab|------------xx-------------------------xx------------------------|
Db|0-----------xx---------------0---------xx------------------------|

Guitar 2 - Slight Dist. with some delay
eb|-----------------------------------------------------------------|
Bb|-----------------------------------------------------------------|
Gb|---------------10---10--10-------------------10---10--10---------|
Db|---8-7-5---------8----8--------8-7-5-----------8----8---8--------|
Ab|----------5---------------------------5--------------------------|
Db|------------------0-------(0)--------------------0---------------|

PRE CHORUS
Guitar 1 - Dist.
eb|--------------------------------------------|
Bb|--------------------------------------------|
Gb|-(10)---------------------------------------|
Db|--10----------------------0-----------------|
Ab|--8--(times about 24)-----0-(let ring)------|
Db|--8-----------------------0-----------------|

Guitar 2 - Dist.
eb|------------------------------------------------------------------------|
Bb|------------------------------------------------------------------------|
Gb|-(10)----------------------7--7s10-10-10s14-14-14s17------10-12-12b-10--|
Db|--10-----------------------x--x-x--x--x--x--x--x--x--10h12------------12|
Ab|--8--(times about 24)------5--5s8--8--8-s12-12-12s15--------------------|
Db|--8---------------------------------------------------------------------|

CHORUS
Both Guitars - Dist.
eb|---------------------------------------------------------|
Bb|---------------------------------------------------------|
Gb|-------12-11-7--------12-11-14--------12-11-7------------|
Db|-0--00-x--x--x--0--00-x--x--x---0--00-x--x--x---10-------|
Ab|-0--00-10-9--5--0--00-10-9--12--0--00-10-9--5---8--(12x)-|
Db|-0--00----------0--00-0---------0--00-----------8--------|

VERSE
PRE-CHORUS
CHORUS

INTERLUDE
Guitar 1 - Dist.
1st 5 times           Last time
                  v -- Not sure which effect is used here.
eb|------------------|----------------|
Bb|---------------10-|----------------|
Gb|------------------|----------------|
Db|-0-0--0--0-0--0---|-0-0--0--0-0--0-|
Ab|-0-0--0--0-0--0---|-0-0--0--0-0--0-|
Db|-0-0--0--0-0--0---|-0-0--0--0-0--0-|
    . .  .  . .  .     . .  .  . .  .

Guitar 2 - Dist. with slight palm mute

eb|------------------|----------------|
Bb|------------------|----------------|
Gb|------------------|----------------|
Db|------------------|----------------|
Ab|------------------|----------------|
Db|---12-s-3---------|---12-s-3-------|

INTRO

PRE-CHORUS
Guitar 1 - Dist.
eb|--------------------------------------------|
Bb|--------------------------------------------|
Gb|-(10)---------------------------------------|
Db|--10----------------------0-----------------|
Ab|--8--(times about 24)-----0-(let ring)------|
Db|--8-----------------------0-----------------|

Guitar 2 - Dist.
eb|------------------------------------------------------------------------|
Bb|------------------------------------------------------------------------|
Gb|-(10)----------------------7--7s10-10-10s14-14-14s17------10-12-12b-10--|
Db|--10-----------------------x--x-x--x--x--x--x--x--x--10h12------------12|
Ab|--8--(times about 24)------5--5s8--8--8-s12-12-12s15--------------------|
Db|--8---------------------------------------------------------------------|

Guitar 1
eb|-------------------------------------------|
Bb|-------------------------------------------|
Gb|-(10)--------------------------------------|
Db|--10----------------------00-------00------|
Ab|--8--(times about 24)-----00-------00------|
Db|--8-----------------------00-------00------|

Guitar 2
eb|-------------------------------------------|
Bb|-------------------------------------------|
Gb|-(10)-------------------------1212----1212-|
Db|--10--------------------------x-x-----x-x--|
Ab|--8--(times about 24)---------1010----1010-|
Db|--8----------------------------------------|

CHORUS

OUTRO
Both Guitars         Guitar 1 only --- v   v --- Guitar 2 only
eb|------------------------------------------------------------------------|
Bb|------------------------------------------------------------------------|
Gb|----------------------------------------7-------------------------------|
Db|-0000-6p0--0000-6p0--0000-6p0--0000-6p0---0000-6p0-0000-6p0-0000-6p0--0-|
Ab|-0000-6p0--0000-6p0--0000-6p0--0000-6p0---0000-6p0-0000-6p0-0000-6p0--0-|
Db|-0000-6p0--0000-6p0--0000-6p0--0000-6p0---0000-6p0-0000-6p0-0000-6p0--0-|

Track 6 - Given:

Tuning: Drop C Tuned Down (C,G,C,f,a,d)

Legend:
\-slide down
/-slide up
p-pull off
h-hammer on
~-vibrato
o--|
---| (
                                                                                            
Suggest correction
What's this?
You can suggest a correction to this tab. Community and Mods will review your correction and vote to approve or reject it.
comments
print report bad tab
9 comments total. Showing first comments.
0 reply
boyan89 163 wrote on May 4 2006, 03:04 pm

hey man pretty good but u messed up on truth!!although the rest is 5*

0 reply
boyan89 163 wrote on May 4 2006, 09:55 pm

yah theres hand muting in truth in the intro and the prechorus

0 reply
slazh 11 wrote on May 7 2006, 07:21 am

There are some of the songs that are wrong tuned, The gift for exampel.

The Gift is not in Db but D

guest
You may want to rate the tab now too:
select rating
Please do not post tabs as comments. Select "correction" instead!