Oops, an error
Loading. Please wait.

Let You Down tab

version 2
version 2

Whole song

  • This is a tab for the song's rhythm guitar, which is mostly just power chords.

Interactive

by Seether
1,612 views 15 this week
no commentswrite comment
1 2 3 4 5
1 last vote to show rating
add to favorites
×
Save as Personal and add changes to this tab that will be seen only by you. Learn more ›
×
You can save this tab as Personal to edit and correct it or add notes. All changes will be seen only by you. Learn more »
launch autoscroll
font size
0
reset
how to read this tab
guitar tuner
edit
Autoscroll
slow
fast
+/-
esc
set tempo
stop
Artist:Seether
Song:Let You Down
Album: Poison the Parish (2017)
Tuning: Drop D


[Intro]
E|----------------------------------------------------------------------------------------|
B|----------------------------------------------------------------------------------------|
G|----------------------------------------------------------------------------------------|
D|----------------------------------------------------------------------------------------|
A|-3*-5*----------------------------------------------------------------------------------|
D|-------2--2-2-0-2-2-2-2-0-2-2-2-2-0-5b-0-5h7-5---2--2-2-0-2-2-2-2-0-2-2-2-2-0-5b---0----|
PM       .  . . . . . . . . . . . . .              .  . . . . . . . . . . . . .

E|----------------------------------------------------------------------------------------|
B|----------------------------------------------------------------------------------------|
G|----------------------------------------------------------------------------------------|
D|-2--2-2-0-2-2-2-2-0-2-2-2-2-0-5b-0-5h7-5---2--2-2-0-2-2-2-2-0-2-2-2-2-0-5b---0----------|
A|-2--2-2-0-2-2-2-2-0-2-2-2-2-0-5b-0-5h7-5---2--2-2-0-2-2-2-2-0-2-2-2-2-0-5b---0----------|
D|-2--2-2-0-2-2-2-2-0-2-2-2-2-0-5b-0-5h7-5---2--2-2-0-2-2-2-2-0-2-2-2-2-0-5b---0----------|

[Verse 1]
E|----------------------------------------------------------------------------------------|
B|----------------------------------------------------------------------------------------|
G|----------------------------------------------------------------------------------------|
D|----------------------------------------------------------------------------------------|
A|----------------------------------------------------------------------------------------|
D|-2--2-2-0-2-2-2-2-0-2-2-2-2-0-5b-0-5h7-5---2--2-2-0-2-2-2-2-0-2-2-2-2-0-5b---0--(x2)----|
PM .  . . . . . . . . . . . . .              .  . . . . . . . . . . . . .

[Pre-Chorus]
E|----------------------------------------------------------------------------------------|
B|----------------------------------------------------------------------------------------|
G|----------------------------------------------------------------------------------------|
D|-2-2-2-2-0-2-2-2-2-0-2-2-2-2-0--------------2-2-2-2-0-2-2-2-2-0-2-2-2-2-0---------------|
A|-2-2-2-2-0-2-2-2-2-0-2-2-2-2-0--------------2-2-2-2-0-2-2-2-2-0-2-2-2-2-0---------(x2)--|
D|-2-2-2-2-0-2-2-2-2-0-2-2-2-2-0-5b-0-5h7-5---2-2-2-2-0-2-2-2-2-0-2-2-2-2-0-5b---0--------|
PM . . . . . . . . . . . . . . .              . . . . . . . . . . . . . . .

[Chorus]
E|----------------------------------------------------------------------------------------|
B|----------------------------------------------------------------------------------------|
G|-9-9-9-9-9-9-9-9-9-9-9-12-12-12-7-7-7-7-7-7-7-7-7-7-7-9-9-9-5-5-5-5-5-5-5-5-5-5-5-7-7-7-|
D|-9-9-9-9-9-9-9-9-9-9-9-12-12-12-7-7-7-7-7-7-7-7-7-7-7-9-9-9-5-5-5-5-5-5-5-5-5-5-5-7-7-7-|
A|-7-7-7-7-7-7-7-7-7-7-7-10-10-10-5-5-5-5-5-5-5-5-5-5-5-7-7-7-3-3-3-3-3-3-3-3-3-3-3-5-5-5-|
D|----------------------------------------------------------------------------------------|

E|----------------------------------------------------------------------------------------|
B|----------------------------------------------------------------------------------------|
G|-2-2-2-2-2-2-2-2-2-2-2-5-5-5-3-3-3------------------------------------------------------|
D|-2-2-2-2-2-2-2-2-2-2-2-5-5-5-3-3-3--(x2)------------------------------------------------|
A|-0-0-0-0-0-0-0-0-0-0-0-3-3-3-1-1-1------------------------------------------------------|
D|----------------------------------------------------------------------------------------|

[Post-Chorus]
E|----------------------------------------------------------------------------------------|
B|----------------------------------------------------------------------------------------|
G|----------------------------------------------------------------------------------------|
D|-2--2-2-0-2-2-2-2-0-2-2-2-2-0-5b-0-5h7-5---2--2-2-0-2-2-2-2-0-2-2-2-2-0-5b---0----------|
A|-2--2-2-0-2-2-2-2-0-2-2-2-2-0-5b-0-5h7-5---2--2-2-0-2-2-2-2-0-2-2-2-2-0-5b---0----------|
D|-2--2-2-0-2-2-2-2-0-2-2-2-2-0-5b-0-5h7-5---2--2-2-0-2-2-2-2-0-2-2-2-2-0-5b---0----------|

[Verse 2]
E|----------------------------------------------------------------------------------------|
B|----------------------------------------------------------------------------------------|
G|----------------------------------------------------------------------------------------|
D|----------------------------------------------------------------------------------------|
A|----------------------------------------------------------------------------------------|
D|-2--2-2-0-2-2-2-2-0-2-2-2-2-0-5b-0-5h7-5---2--2-2-0-2-2-2-2-0-2-2-2-2-0-5b---0--(x2)----|
PM .  . . . . . . . . . . . . .              .  . . . . . . . . . . . . .

[Pre-Chorus]
E|----------------------------------------------------------------------------------------|
B|----------------------------------------------------------------------------------------|
G|----------------------------------------------------------------------------------------|
D|-2-2-2-2-0-2-2-2-2-0-2-2-2-2-0--------------2-2-2-2-0-2-2-2-2-0-2-2-2-2-0---------------|
A|-2-2-2-2-0-2-2-2-2-0-2-2-2-2-0--------------2-2-2-2-0-2-2-2-2-0-2-2-2-2-0---------(x2)--|
D|-2-2-2-2-0-2-2-2-2-0-2-2-2-2-0-5b-0-5h7-5---2-2-2-2-0-2-2-2-2-0-2-2-2-2-0-5b---0--------|
PM . . . . . . . . . . . . . . .              . . . . . . . . . . . . . . .

[Chorus]
E|----------------------------------------------------------------------------------------|
B|----------------------------------------------------------------------------------------|
G|-9-9-9-9-9-9-9-9-9-9-9-12-12-12-7-7-7-7-7-7-7-7-7-7-7-9-9-9-5-5-5-5-5-5-5-5-5-5-5-7-7-7-|
D|-9-9-9-9-9-9-9-9-9-9-9-12-12-12-7-7-7-7-7-7-7-7-7-7-7-9-9-9-5-5-5-5-5-5-5-5-5-5-5-7-7-7-|
A|-7-7-7-7-7-7-7-7-7-7-7-10-10-10-5-5-5-5-5-5-5-5-5-5-5-7-7-7-3-3-3-3-3-3-3-3-3-3-3-5-5-5-|
D|----------------------------------------------------------------------------------------|

E|----------------------------------------------------------------------------------------|
B|----------------------------------------------------------------------------------------|
G|-2-2-2-2-2-2-2-2-2-2-2-5-5-5-3-3-3------------------------------------------------------|
D|-2-2-2-2-2-2-2-2-2-2-2-5-5-5-3-3-3--(x)2------------------------------------------------|
A|-0-0-0-0-0-0-0-0-0-0-0-3-3-3-1-1-1------------------------------------------------------|
D|----------------------------------------------------------------------------------------|

[Bridge]
E|----------------------------------------------------------------------------------------|
B|----------------------------------------------------------------------------------------|
G|----------------------------------------------------------------------------------------|
D|----------------------------------------------2-2-2-2-----------------------------------|
A|----------------------------------------------2-2-2-2-----------------------------------|
D|-5-0-5-0-7b--2-0-2-0-5b-0-5-0-5-0-7b--2-0-2-0-2-2-2-2-----------------------------------|
PM                                              . . . .

E|----------------------------------------------------------------------------------------|
B|----------------------------------------------------------------------------------------|
G|----------------------------------------------------------------------------------------|
D|----------------------------------------------------------------------------------------|
A|----------------------------------------------------------------------------------------|
D|-5-0-5-0-7b--2-0-2-0-5b-0-5-0-5-0-7b--2-0-2-0-------------------------------------------|

E|----------------------------------------------------------------------------------------|
B|----------------------------------------------------------------------------------------|
G|----------------------------------------------------------------------------------------|
D|-5-0-5-0-----2-0-2-0----0-------5-0-5-0-----2-0-2-0-------------------------------------|
A|-5-0-5-0-----2-0-2-0----0--(x3)-5-0-5-0-----2-0-2-0-------------------------------------|
D|-5-0-5-0-7b--2-0-2-0-5b-0-------5-0-5-0-7b--2-0-2-0-------------------------------------|

E|----------------------------------------------------------------------------------------|
B|----------------------------------------------------------------------------------------|
G|----------------------------------------------------------------------------------------|
D|-5-0-5-0-----2-0-2-0----0-------5-0-5-0-----2-0-2-0-2-2-2-2-----------------------------|
A|-5-0-5-0-----2-0-2-0----0--(x3)-5-0-5-0-----2-0-2-0-2-2-2-2-----------------------------|
D|-5-0-5-0-7b--2-0-2-0-5b-0-------5-0-5-0-7b--2-0-2-0-2-2-2-2-----------------------------|
PM                                                    . . . .

E|----------------------------------------------------------------------------------------|
B|----------------------------------------------------------------------------------------|
G|----------------------------------------------------------------------------------------|
D|----------------------------------------------------------------------------------------|
A|----------------------------------------------------------------------------------------|
D|-2--2-2-0-2-2-2-2-0-2-2-2-2-0-5b---0----------------------------------------------------|
PM .  . . . . . . . . . . . . .

[Chorus]
E|----------------------------------------------------------------------------------------|
B|----------------------------------------------------------------------------------------|
G|-9-9-9-9-9-9-9-9-9-9-9-12-12-12-7-7-7-7-7-7-7-7-7-7-7-9-9-9-5-5-5-5-5-5-5-5-5-5-5-7-7-7-|
D|-9-9-9-9-9-9-9-9-9-9-9-12-12-12-7-7-7-7-7-7-7-7-7-7-7-9-9-9-5-5-5-5-5-5-5-5-5-5-5-7-7-7-|
A|-7-7-7-7-7-7-7-7-7-7-7-10-10-10-5-5-5-5-5-5-5-5-5-5-5-7-7-7-3-3-3-3-3-3-3-3-3-3-3-5-5-5-|
D|----------------------------------------------------------------------------------------|

E|----------------------------------------------------------------------------------------|
B|----------------------------------------------------------------------------------------|
G|-2-2-2-2-2-2-2-2-2-2-2-5-5-5-3-3-3------------------------------------------------------|
D|-2-2-2-2-2-2-2-2-2-2-2-5-5-5-3-3-3--(x2)------------------------------------------------|
A|-0-0-0-0-0-0-0-0-0-0-0-3-3-3-1-1-1------------------------------------------------------|
D|----------------------------------------------------------------------------------------|

[Outro]
E|----------------------------------------------------------------------------------------|
B|----------------------------------------------------------------------------------------|
G|----------------------------------------------------------------------------------------|
D|-2--2-2-0-2-2-2-2-0-2-2-2-2-0-5b-0-5h7-5---2--2-2-0-2-2-2-2-0-2-2-2-2-0-5b---0-0-0-0----|
A|-2--2-2-0-2-2-2-2-0-2-2-2-2-0-5b-0-5h7-5---2--2-2-0-2-2-2-2-0-2-2-2-2-0-5b---0-0-0-0----|
D|-2--2-2-0-2-2-2-2-0-2-2-2-2-0-5b-0-5h7-5---2--2-2-0-2-2-2-2-0-2-2-2-2-0-5b---0-0-0-0----|
PM                                                                             . . . .


************************************

| *   Natural harmonic
| h   Hammer-on
| b   Bend
| PM  Palm mute

************************************

            
            
Suggest correction
Creating personal tab
Creating personal tab
You can edit any tab online and save it as your Personal.

You can edit, replace or remove any tab part or add personal notes – all changes will be seen only by you.

Personal tabs can be accessed anytime from any device, even offline.
Learn more »
Give kudos to tab author, rate the tab!
1 2 3 4 5
comments
print report bad tab
guest
You may want to rate the tab now too:
select rating
Wanna post a correction for this tab? Suggest correction