Oops, an error
Loading. Please wait.

Like Suicide Tab

version 2
version 2

Whole song

Interactive

17,024 views 6 this week
12 commentsread comments
1 2 3 4 5
accurate
x 8
add to favorites
launch autoscroll
font size
0
reset
how to read this tab
guitar tuner
Tab Pro tools
  • play this tab
  • loop segment
  • change instrument
  • show fretboard
  • metronome
×
Best way to learn
"Like Suicide"
Autoscroll
slow
fast
+/-
esc
set tempo
stop
Difficulty
Tuning
intermediate
C G C F A D
-------------------------------------------------------------------------------
                             Like Suicide - Seether
-------------------------------------------------------------------------------
Tabbed by: Ricky
Email: CollapseOfAir@aim.com

Tuning: Dropped C

NOTE: This is based on the live version from a video I saw on Youtube

Intro/Verse
D|-------------------------------------------------------------8-------------|
A|---6-----6-----6---5-----5-----5---6-----6-----6---8-----8-----------------|
F|-----7-7---7-7---7---7-7---7-7---7---7-7---7-7---7---7-7---7---------------|
C|---------------------------------------------------------------------------|
G|---------------------------------------------------------------------------|
C|---------------------------------------------------------------------------|

Chorus
D|---------------------------------------------------------------------------|
A|---------------------------------------------------------------------------|
F|------------------3~-3-3---------------------------------------------------|
C|--0~-0-0--3~-3-3--3~-3-3--5~-5-5-------------------------------------------|
D|--0~-0-0--3~-3-3--1~-1-1--5~-5-5-------------------------------------------|
C|--0~-0-0--3~-3-3----------5~-5-5-------------------------------------------|

Post Chorus Riff pt. 1
D|---------------------------------------------------------------------------|
A|---------------------------------------------------------------------------|
F|---------------------------------------------------------------------------|
C|--3-p-0-0-0--0-3-p-0-0-0-------<5>--3-p-0-0-0--0-3-p-0-0-0----------3------|
D|--3-p-0-0-0--0-3-p-0-0-0----<5>-----3-p-0-0-0--0-3-p-0-0-0----3-h-5-3------|
C|--3-p-0-0-0--0-3-p-0-0-0--0---------3-p-0-0-0--0-3-p-0-0-0--0-------3------|

D|---------------------------------------------------------------------------|
A|---------------------------------------------------3~-/-6~-/-8~------------|
F|----------------------------------------5----------2~-/-5~-/-7~------------|
C|--3-p-0-0-0--0-3-p-0-0-0-------<5>--3-0-5-5--1-1-1-0~----------------------|
D|--3-p-0-0-0--0-3-p-0-0-0----<5>-----3-0-3-5--1-1-1-0~----------------------|
C|--3-p-0-0-0--0-3-p-0-0-0--0---------3-0---5--1-1-1-0~----------------------|


Bridge
D|---------------------------------------------------------------------------|
A|---------------------------------------------------------------------------|
F|--5-/-7-7-7--7-/-5-5-5--5-/-2-2-2------------------------------------------|
C|--5-/-7-7-7--7-/-5-5-5--5-/-2-2-2-5-3-0--3-/-5-5-5-5-3-0--3-/-5-5-5-5-/-7-0|
D|--3-/-5-5-5--5-/-3-3-3--3-/-0-0-0-5-3-0--3-/-5-5-5-5-3-0--3-/-5-5-5-5-/-7-0|
C|----------------------------------5-3-0--3-/-5-5-5-5-3-0--3-/-5-5-5-5-/-7-0|



| /  slide up
| \  slide down
| h  hammer-on
| p  pull-off
| ~  vibrato
| +  harmonic
| x  Mute note
===============================================================================
comments
print report bad tab
12 comments total. Showing first comments.
0 reply
Xak wrote on September 18 2007, 05:50 pm

dude...the chorus isnt even close.

0 reply
grenzow_69 wrote on September 23 2007, 07:25 pm

yea its right on man your retarded

0 reply
Miztur Jake wrote on October 3 2007, 05:30 pm

i agree, the chorus sounds right


need the outro tho

I want to post or [tab]
guest
You may want to rate the tab now too:
select rating
Please do not post tabs as comments. Select "correction" instead!