Oops, an error
Loading. Please wait.

Like Suicide Tab

version 3
version 3

Whole song

Interactive

7,878 views 3 this week
4 commentsread comments
1 2 3 4 5
accurate
x 3
add to favorites
launch autoscroll
font size
0
reset
how to read this tab
guitar tuner
Autoscroll
slow
fast
+/-
esc
set tempo
stop
Help us to improve Ultimate-Guitar.com Take our survey!
×
Author
Difficulty
intermediate
verse 1 x4
d(--1---1---1--0---0---0--1---1---1---3---3---8-)
a(---33--33--3--33--33--3--33--33--33--33--33---)
f(----------------------------------------------)
c(----------------------------------------------)
g(----------------------------------------------)
C(----------------------------------------------)

chorus x2
d(--------------------------------------)
a(--------------------------------------)
f(--------------------33333333-33333333-)
c(--00000000-33333333-33333333-33333333-)
g(--00000000-33333333-11111111-11111111-)
C(--00000000-33333333-------------------)

chorus (lead) x2
d(----------------------------------------------)
a(----------------------------------------------)
f(--5-5-5-5--10--10--10--10---3-3-3-3--3-3-3-3--)
c(---5-5-5-5---10--10--10--10--3-3-3-3--3-3-3-3-)
g(----------------------------------------------)
C(----------------------------------------------)

post chorus  (all the sevens in the post chorus are harmonics)
d(------------------------------------------------)
a(------------------------------------------------)
f(---------------------7--------------------------)
c(--3-000-3-000-3-000-7---3-000-3-000-3-000-------)
g(--3-000-3-000-3-000-----3-000-3-000-3-000-3h5---)
C(--3-000-3-000-3-000-----3-000-3-000-3-000-----3-)
  pm. ... . ... . ...     . ... . ... . ...

post chorus continued
d(----------------------------------)
a(----------------------------------)
f(---------------------7------5-----)
c(--3-000-3-000-3-000-7---3-0-5-5-3-)
g(--3-000-3-000-3-000-----3-0-3-5-3-)
C(--3-000-3-000-3-000-----3-0---5-3-)
  pm. ... . ... . ...

post chorus continued
d(------------------------------------------------)
a(------------------------------------------------)
f(---------------------7--------------------------)
c(--3-000-3-000-3-000-7---3-000-3-000-3-000-------)
g(--3-000-3-000-3-000-----3-000-3-000-3-000-3h5---)
C(--3-000-3-000-3-000-----3-000-3-000-3-000-----3-)

post chorus continued
d(---------------------------------------)
a(---------------------------------------)
f(---------------------7------5--------7-)
c(--3-000-3-000-3-000-7---3-0-5-5-3333-7-)
g(--3-000-3-000-3-000-----3-0-3-5-3333-5-)
C(--3-000-3-000-3-000-----3-0---5-3333---)

verse x x3
d(--1---1---1--0---0---0--1---1---1---3---3---8-)
a(---33--33--3--33--33--3--33--33--33--33--33---)
f(----------------------------------------------)
c(----------------------------------------------)
g(----------------------------------------------)
C(----------------------------------------------)

chorus x2
d(--------------------------------------)
a(--------------------------------------)
f(--------------------33333333-33333333-)
c(--00000000-33333333-33333333-33333333-)
g(--00000000-33333333-11111111-11111111-)
C(--00000000-33333333-------------------)

chorus (lead) x2
d(----------------------------------------------)
a(----------------------------------------------)
f(--5-5-5-5--10--10--10--10---3-3-3-3--3-3-3-3--)
c(---5-5-5-5---10--10--10--10--3-3-3-3--3-3-3-3-)
g(----------------------------------------------)
C(----------------------------------------------)

post chorus (the same as the first post chorus but without the palm-mutes) 
(all the sevens in the post chorus are harmonics)
d(------------------------------------------------)
a(------------------------------------------------)
f(---------------------7--------------------------)
c(--3-000-3-000-3-000-7---3-000-3-000-3-000-------)
g(--3-000-3-000-3-000-----3-000-3-000-3-000-3h5---)
C(--3-000-3-000-3-000-----3-000-3-000-3-000-----3-)

post chorus continued
d(----------------------------------)
a(----------------------------------)
f(---------------------7------5-----)
c(--3-000-3-000-3-000-7---3-0-5-5-3-)
g(--3-000-3-000-3-000-----3-0-3-5-3-)
C(--3-000-3-000-3-000-----3-0---5-3-)

post chorus continued
d(------------------------------------------------)
a(------------------------------------------------)
f(---------------------7--------------------------)
c(--3-000-3-000-3-000-7---3-000-3-000-3-000-------)
g(--3-000-3-000-3-000-----3-000-3-000-3-000-3h5---)
C(--3-000-3-000-3-000-----3-000-3-000-3-000-----3-)

post chorus continued
d(---------------------------------------)
a(---------------------------------------)
f(---------------------7------5--------7-)
c(--3-000-3-000-3-000-7---3-0-5-5-3333-7-)
g(--3-000-3-000-3-000-----3-0-3-5-3333-5-)
C(--3-000-3-000-3-000-----3-0---5-3333-0-)

bridge  (this bridge is very weird and hard to play along with)
d(------------------------------------------------------------------)
a(-----------------------------------------------------555566668888-)
f(----------------/7--/7--/7--5585577775555777755557777-------------)
c(--00-8--/7--/5----------------------------------------------------)
g(--00--------------------------------------------------------------)
C(--00--------------------------------------------------------------)
  pm..

brige continued (play the first section three times)
d(------------------)(-----------)
a(------------------)(-----------)
f(--77-55-----------)(--77-55----)
c(--77-55-55-33-3h5-)(--77-55-55-)
g(--55-33-55-33-3h5-)(--55-33-55-)
C(--------55-33-3h5-)(--------55-)

chorus x4
d(--------------------------------------)
a(--------------------------------------)
f(--------------------33333333-33333333-)
c(--00000000-33333333-33333333-33333333-)
g(--00000000-33333333-11111111-11111111-)
C(--00000000-33333333-------------------)

chorus (lead) x4
d(----------------------------------------------)
a(----------------------------------------------)
f(--5-5-5-5--10--10--10--10---3-3-3-3--3-3-3-3--)
c(---5-5-5-5---10--10--10--10--3-3-3-3--3-3-3-3-)
g(----------------------------------------------)
C(----------------------------------------------)

outro x4
d(---------------------------------------------)
a(---------------------------------------------)
f(--5-55-5/7-5--5-55-5/7-5--5-55-5/7-5--5-55---)
c(--5-55-5/7-5--5-55-5/7-5--5-55-5/7-5--5-55-1-)
g(--3-33-3/5-3--3-33-3/5-3--3-33-3/5-3--3-33-1-)
C(-------------------------------------------1-)

outro (lead)
d(----------------------------------15--15-15-15-13--15--15-15-15/17-17-)
a(------------------17--17-17-17-15-------------------------------------)
f(--17--17-17-17-14-----------------------------------------------------)
c(----------------------------------------------------------------------)
g(----------------------------------------------------------------------)
C(----------------------------------------------------------------------)

outro (lead) continued
d(----------------------------------15--15-15-15-13-------------------)
a(------------------17--17-17-17-15-------------------15--15-15-15-13-)
f(--17--17-17-17-14---------------------------------------------------)
c(--------------------------------------------------------------------)
g(--------------------------------------------------------------------)
C(--------------------------------------------------------------------)

outro (lead) continued
d(----------------------------------15--15-15-15-13--15--15-15-15/20-20-)
a(------------------17--17-17-17-15-------------------------------------)
f(--17--17-17-17-14-----------------------------------------------------)
c(----------------------------------------------------------------------)
g(----------------------------------------------------------------------)
C(----------------------------------------------------------------------)

outro (lead) continued
d(------------------------------------------------------------------)
a(------------------17--17-17-17-15------------13-------------------)
f(--17--17-17-17-14----------------------14-12----14--12--14-14-----)
c(------------------------------------------------------------------)
g(------------------------------------------------------------------)
C(------------------------------------------------------------------)
Suggest correction
Give kudos to tab author, rate the tab!
1 2 3 4 5
comments
print report bad tab
4 comments total. Showing first comments.
+1 reply
awsomeguitarguy 152 wrote on December 3 2007, 04:14 pm

Dude, all wrong, intro, chorus, everything bad quality of the tab too, not how he plays it, uhhhh

0 reply
dragon88 10 wrote on December 7 2007, 11:27 am

this is some prity sweet tabing good job

0 reply
traskman 177 wrote on December 11 2007, 11:44 pm

tell me.... where is the 33rd fret on a normal guitar?

guest
You may want to rate the tab now too:
select rating
Wanna post a correction for this tab? Suggest correction