Oops, an error
Loading. Please wait.

Like Suicide Tab

version 4
version 4

Whole song

Interactive

31,530 views 48 this week
3 commentsread comments
1 2 3 4 5
excellent!
x 20
add to favorites
launch autoscroll
font size
0
reset
how to read this tab
guitar tuner
Tab Pro tools
  • play this tab
  • loop segment
  • change instrument
  • show fretboard
  • metronome
×
Best way to learn
"Like Suicide"
Autoscroll
slow
fast
+/-
esc
set tempo
stop
Contributor
Difficulty
novice
----------------------------------------------------------------------------
                             Like Suicide - Seether
----------------------------------------------------------------------------
Tabbed by:travis
Email:tewells27@yahoo.com

Tuning:C,G,C,F,A,D

The tabs on here are ok and for the most part only intro is right and no real detail so 
thought to throw mine up here.Enjoy

   Intro/Clean tone  Riff A
e|----------------------------------------------------------------------8-----|
B|--6-------6-------6----5-----5------5----6-----6-----6---8-----8------------|
G|----7--7-----7-7----7----7-7---7-7----7----7-7---7-7---7---7-7---7-7--------|
D|----------------------------------------------------------------------------|
A|----------------------------------------------------------------------------|
E|----------------------------------------------------------------------------|

   Verse W/Riff A 3 times
   Gtr.2 W/verse one time only W/flanger&Dist
e|----------------------------------------------------------------------------|
B|----------------------------------------------------------------------------|
G|----------------------------------------------------------------------------|
D|-0-------------0----------0-------------------0-----------------------------|
A|----------------------------------------------------------------------------|
E|----------------------------------------------------------------------------|

   Chorus Chords Gtr 1
     D5         F5       Bb5      G5
e|--X-------------------------------------------------------------------------|
B|--3-------------------------------------------------------------------------|
G|--2-------------------------------------------------------------------------|
D|--0----3-----8-----5--------------------------------------------------------|
A|--0----3-----8-----5--------------------------------------------------------|
E|--0----3-----8-----5--------------------------------------------------------|

   Chorus lead Gtr.2 W/dist
e|-10-10-10-13-12-12-8--8--10--8--8-8\--8-10-10--10--8--3--5--5--5--3---3-----|
B|-10-10-10-10-10-10-8--8------8--8-8\--8-10-10--10--8--3--3--3--3--3---3-----|
G|----------------------------------------------------------------------------|
D|----------------------------------------------------------------------------|
A|----------------------------------------------------------------------------|
E|----------------------------------------------------------------------------|

   N.C........Partial P.M throughout     Harmonic
e|----------------------------------------------------------------------------|
B|----------------------------------------------------------------------------|
G|----------------------------------------------------------------------------|
D|-----------------------------(5)--------------------------------------------|
A|---------------------------(5)-----------------------------3h5h3------------|
E|--3--0-0-0-3-0-3-0-0-0-3-0-------3-0-0-0-3-0-3-0-0-0-3-0----------3---------|

e|----------------------------------------------------------------------------|
B|----------------------------------------------------------------------------|
G|----------------------------------------------------------------------------|
D|----------------------------(5)---------5-----------------------------------|
A|--------------------------(5)-----3--0--3---5\1-----------------------------|
E|--3-0-0-0-3-0-3-0-0-0-3-0--------3--0------5\1------------------------------|


e|----------------------------------------------------------------------------|
B|----------------------------------------------------------------------------|
G|----------------------------------------------------------------------------|
D|---------------------------(5)----------------------------------------------|
A|-3p0-----3-0-3p0-----3---(5)----3p0------3-0-3p0-----3--0--3h5h3---3--------|
E|-3p0-0-0-3-0-3p0-0-0-3-0-------3p0--0-0-3-0-3p0-0-0-3--0----------3---------|

e|----------------------------------------------------------------------------|
B|----------------------------------------------------------------------------|
G|----------------------------------------------------------------------------|
D|------------------------------(5)---------5---------------------------0-----|
A|--3p0------3-0-3p0------3---(5)----3--0---3----5\1--1--1--1-----------0-----|
E|--3p0--0-0-3-0-3p0--0-0-3--0------3--0--------5\1--1--1--1-----------0------|

   Bridge/Solo..you set me up to fucking fail this time
   W/Wah & Dist
e|------------------------------x----x-x---------------------------------------|
B|------------------------------x----x-x-x-------------------0-----------------|
G|------------------------------------------7--7--7--7--7----------------------|
D|--7/4---4---(4)b---(4)V----4-------------------------------------------------|
A|-----------------------------------------------------------------------------|
E|-----------------------------------------------------------------------------|

   Trem.pick.................................................................
e|----------------------------------------------------------------------------|
B|----------------------------------------------------------------------------|
G|--5---5---6-6---7---7---5----7---7----8-------------------------------------|
D|----------------------------------------------------------------------------|
A|----------------------------------------------------------------------------|
E|----------------------------------------------------------------------------|

   set me up to fucking fail this time
   P.M......................................................................
e|----------------------------------------------------------------------------|
B|----------------------------------------------------------------------------|
G|----------------------------------------------------------------------------|
D|-----------------------------------------------------------3/5-5-5--5--7----|
A|-10-12-12-12-12-10-10-10-10-7-7-7-7-5-0-0-3-5-5-5-5-3-0-0--3/5-5-5--5--7-7--|
E|-10-12-12-12-12-10-10-10-10-7-7-7-7-5-0-0-3-5-5-5-5-3-0-0--3/5-5-5--5--7-7--|

e|-----------------------------------------------------------------------------|
B|-----------------------------------------------------------------------------|
G|-----------------------------------------------------------------------------|
D|-10-12-12-12-12\10-10-10-10\7-7-7-7\5-0-0--3/5-5-5-5\3-0-0-3/5-5-5-5/7-7-7---|
A|-10/12-12-12-12\10-10-10-10\7-7-7-7\5-0-0--3/5-5-5-5\3-0-0-3/5-5-5-5/7-7-7---|
E|-10/12-12-12-12\10-10-10-10\7-7-7-7\5-0-0--3/5-5-5-5\3-0-0-3/5-5-5-5/7-7-7---|

Repeat Chorus then......

   Outro
e|----------------------------------------------------------------------------|
B|----------------------------------------------------------------------------|
G|----------------------------------------------------------------------------|
D|--0----------------------------10p12-10-------------10p12-----------1-------|
A|--0--------10p12--10-0-0-------10p12-10--0-0--------10p12-----------1-------|
E|--0--12-0--10p12--10-0-0-10-12-----------0-0--10-12-------0--0--3-0-1-------|

play 2 1/2 times then
an add w/P.M
e|---------------|
B|---------------|
G|---------------|
D|---------------|
A|--1--1--1--1---|
E|--1--1--1--1---|

An End Song on D5




| /  slide up
| \  slide down
| h  hammer-on
| p  pull-off
| ~  vibrato
| +  harmonic
| x  Mute note
=============================================================
comments
print report bad tab
3 comments total.
0 reply
wes_jett2008 wrote on September 14 2008, 02:34 am

Pretty good 5 stars...

0 reply
fendercobain87 wrote on October 8 2009, 06:46 pm

it's awsome so u earn 5

0 reply
axegod in makin wrote on January 14 2010, 04:31 pm

tabs gr8, not tranna bitch but its weird playin a guitar in 1 tunin wiv a different 1 written on the tab...

I want to post or [tab]
guest
You may want to rate the tab now too:
select rating
Please do not post tabs as comments. Select "correction" instead!