Oops, an error
Loading. Please wait.

Love Her Bass Tab

version 2
version 2

Whole song

Interactive

3,144 views 1 this week
no commentswrite comment
1 2 3 4 5
1 last vote to show rating
add to favorites
launch autoscroll
font size
0
reset
guitar tuner
Autoscroll
slow
fast
+/-
esc
set tempo
stop
Help us to improve Ultimate-Guitar.com Take our survey!
×
Author
Difficulty
novice
It's not very hard, very easy actually

Intro/Verse
G|------------5-----------------|
D|------7---3----------------7--|
A|----5---0-----3-3-3-5--5-7----|
E|------------------------------| Repeat 6x

Chorus

G|----first part---------------------|
D|-----------------------------------|
A|---------------------------1-1-1-1-|
E|----3-3-3-3-1-1-1-1--3-3-3---------|

G|----second part-------------------------------------|
D|----------------------------------------------------|
A|---------------------1-1-1--------------------------|
E|----3-3-3-3-1-1-1-1--------3-3-3-3 Repeat part 1&2--| 2x

Sequence

Intro/verse 6x
Chorus 2x
Verse 10x
Chorus 2x
Verse 8x
--break--
Chorus 4x beginning halfway first part
Outro/Verse 2x ending on 5th position on A-string
Suggest correction
Give kudos to tab author, rate the tab!
1 2 3 4 5
comments
print report bad tab
guest
You may want to rate the tab now too:
select rating
Wanna post a correction for this tab? Suggest correction