Oops, an error
Loading. Please wait.

Misunderstood tab

by Seether
514 views 12 this week
no commentswrite comment
1 2 3 4 5
x 3
add to favorites
×
Save as Personal and add changes to this tab that will be seen only by you. Learn more ›
×
You can save this tab as Personal to edit and correct it or add notes. All changes will be seen only by you. Learn more »
launch autoscroll
font size
0
reset
how to read this tab
guitar tuner
edit
Autoscroll
slow
fast
+/-
esc
set tempo
stop
Drop D Tuning DADGBE 

Note 1: 
Anytime a riff has a designation of Lead or Rhythm, it is played at the exact same time as 
its counterpart (Lead or Rhythm). 

Note 2: 
In Final Chorus B Lead, each note is picked at the same speed as the fret mutes in the 2nd 
measure of the Pre-Chorus. I've tabbed each note once because the 10's would have looked too 
jumbled together. 

Note 3: 
Only in instances when there is a "x#" designation is the riff repeated. All other riffs are 
played only once. 

[Intro] 
E|----------------------------------|-------------------------------------|
B|----------------------------------|-------------------------------------|
G|-------5--------------------------|--------10----------------5----------|
D|-----5-----5---------5-7----------|-----10------10---------5-----5------| 
A|---3-----------3---0--------------|---8--------------8---3-----------3--|
D|-3---------------0----------------|-8------------------3----------------|
   |_|_|_| |_|_|_| |_|_|_| |_|_|_|    |_|__|__| |__|_|_| |_|_|_| |_|_|_| 

E|-----------------------------------|-------------------------------------|
B|-----------------------------------|-------------------------------------|
G|-----------------------------------|-------------------------------------|
D|-----5-7---5---------5-10----------|-----10-12-10-8---------5-7-5-3------| 
A|---3-----------3---0---------------|---8------------8-----3---------3----|
D|-3---------------0-----------------|-8----------------8-3-------------3--|
   |_|_|_| |_|_|_| |_|_|__| |_|_|_|    |_|__|__|  |_|_|_| |_|_|_| |_|_|_| 

[Verse 1] 
E|----------------------------------|----------------------------------|
B|----------------------------------|----------------------------------|
G|----------------------------------|----------------------------------|
D|----------------------------------|---------------------3-5-5-3------| (x3)
A|-3-3-3-3-3-3-3-3-0-0-0-0-0-0-0-0--|-8-8-8-8-8-8-8-8-3-3--------------|
D|-3-3-3-3-3-3-3-3-0-0-0-0-0-0-0-0--|-8-8-8-8-8-8-8-8-3-3--------------|
pm . . . . . . . . . . . . . . . .    . . . . . . . . . . 
   |_|_|_| |_|_|_| |_|_|_| |_|_|_|    |_|_|_| |_|_|_| |_|_|_| |_|_|_| 

E|----------------------------------|----------------------------------|
B|----------------------------------|----------------------------------|
G|----------------------------------|-----------------------5----------|
D|----------------------------------|---------------------5---5-3------| 
A|-3-3-3-3-3-3-3-3-0-0-0-0-0-0-0-0--|-8-8-8-8-8-8-8-8-3-3--------------|
D|-3-3-3-3-3-3-3-3-0-0-0-0-0-0-0-0--|-8-8-8-8-8-8-8-8-3-3--------------|
pm . . . . . . . . . . . . . . . .    . . . . . . . . . . 
   |_|_|_| |_|_|_| |_|_|_| |_|_|_|    |_|_|_| |_|_|_| |_|_|_| |_|_|_| 

[Pre-Chorus] 
E|----------------------------------|----------------------------------|
B|----------------------------------|----------------------------------|
G|-------7---------------5----------|----------------------------------|
D|-----5-----5---------3-----3------|-0-----5-7-----------------xxx----| 
A|---5---------5-----3---------3----|-0-------------------------xxx----|
D|-5-------------5-3-------------3--|-0-------------------------xxx----|
   |_|_|_| |_|_|_| |_|_|_| |_|_|_|    |_|_|_| |_|_|_| |_|_|_| |_|_|_| 

[Chorus] 
E|----------------------------------|----------------------------------|
B|----------------------------------|----------------------------------|
G|----------------------------------|----------------------------------|
D|-3-3-3-3-3-0-0-0-7-7-7-7-7-5-5-5--|-8-8-8-8-8-0-0-0-3-3-3-3-3-3-3-3--| (x2)
A|-3-3-3-3-3-0-0-0-7-7-7-7-7-5-5-5--|-8-8-8-8-8-0-0-0-3-3-3-3-3-3-3-3--|
D|-3-3-3-3-3-0-0-0-7-7-7-7-7-5-5-5--|-8-8-8-8-8-0-0-0-3-3-3-3-3-3-3-3--|
   |_|_|_| |_|_|_| |_|_|_| |_|_|_|    |_|_|_| |_|_|_| |_|_|_| |_|_|_| 

[Pre-Verse] 
E|-----------------------------------|-------------------------------------|
B|-----------------------------------|-------------------------------------|
G|-----------------------------------|-------------------------------------|
D|-----5-7-5-3---------5-10---8-7----|-----10-12-10-8---------5-7-5-3------| 
A|---3---------3-----0------------0--|---8------------8-----3---------3----|
D|-3-------------3-0-----------------|-8----------------8-3-------------3--|
   |_|_|_| |_|_|_| |_|_|__| |_|_|_|    |_|__|__|  |_|_|_| |_|_|_| |_|_|_| 

[Verse 2] 
E|----------------------------------|----------------------------------|
B|----------------------------------|----------------------------------|
G|----------------------------------|-----------------------5----------|
D|----------------------------------|---------------------3---5-3---3--|
A|-3-3-3-3-3-3-3-3-0-0-0-0-0-0-0-0--|-8-8-8-8-8-8-8-8-3-3---------3----|
D|-3-3-3-3-3-3-3-3-0-0-0-0-0-0-0-0--|-8-8-8-8-8-8-8-8-3-3--------------|
pm . . . . . . . . . . . . . . . .    . . . . . . . . . . 
   |_|_|_| |_|_|_| |_|_|_| |_|_|_|    |_|_|_| |_|_|_| |_|_|_| |_|_|_| 

E|----------------------------------|----------------------------------|
B|----------------------------------|----------------------------------|
G|----------------------------------|----------------------------------|
D|----------------------------------|---------------------3-5-5-3------|
A|-3-3-3-3-3-3-3-3-0-0-0-0-0-0-0-0--|-8-8-8-8-8-8-8-8-3-3--------------|
D|-3-3-3-3-3-3-3-3-0-0-0-0-0-0-0-0--|-8-8-8-8-8-8-8-8-3-3--------------|
pm . . . . . . . . . . . . . . . .    . . . . . . . . . . 
   |_|_|_| |_|_|_| |_|_|_| |_|_|_|    |_|_|_| |_|_|_| |_|_|_| |_|_|_| 

E|----------------------------------|----------------------------------|
B|----------------------------------|----------------------------------|
G|----------------------------------|----------------------------------|
D|----------------------------------|---------------------3-5-5-3-3-3--|
A|-3-3-3-3-3-3-3-3-0-0-0-0-0-0-0-0--|-8-8-8-8-8-8-8-8-3-3--------------|
D|-3-3-3-3-3-3-3-3-0-0-0-0-0-0-0-0--|-8-8-8-8-8-8-8-8-3-3--------------|
pm . . . . . . . . . . . . . . . .    . . . . . . . . . . 
   |_|_|_| |_|_|_| |_|_|_| |_|_|_|    |_|_|_| |_|_|_| |_|_|_| |_|_|_| 

E|----------------------------------|----------------------------------|
B|----------------------------------|----------------------------------|
G|----------------------------------|----------------------------------|
D|----------------------------------|---------------------3-5-3-3-3----| 
A|-3-3-3-3-3-3-3-3-0-0-0-0-0-0-0-0--|-8-8-8-8-8-8-8-8-3-3-----3--------|
D|-3-3-3-3-3-3-3-3-0-0-0-0-0-0-0-0--|-8-8-8-8-8-8-8-8-3-3--------------|
pm . . . . . . . . . . . . . . . .    . . . . . . . . . . 
   |_|_|_| |_|_|_| |_|_|_| |_|_|_|    |_|_|_| |_|_|_| |_|_|_| |_|_|_| 

[Pre-Chorus] 
E|----------------------------------|----------------------------------|
B|----------------------------------|----------------------------------|
G|-------7---------------5----------|----------------------------------|
D|-----5-----5---------3-----3------|-0-----5-7-----------------xxx----| 
A|---5---------5-----3---------3----|-0-------------------------xxx----|
D|-5-------------5-3-------------3--|-0-------------------------xxx----|
   |_|_|_| |_|_|_| |_|_|_| |_|_|_|    |_|_|_| |_|_|_| |_|_|_| |_|_|_| 

[Final Chorus A] 
E|----------------------------------|----------------------------------|
B|----------------------------------|----------------------------------|
G|----------------------------------|----------------------------------|
D|-3-3-3-3-3-0-0-0-7-7-7-7-7-5-5-5--|-8-8-8-8-8-0-0-0-3-3-3-3-3-3-3-3--| (x4)
A|-3-3-3-3-3-0-0-0-7-7-7-7-7-5-5-5--|-8-8-8-8-8-0-0-0-3-3-3-3-3-3-3-3--|
D|-3-3-3-3-3-0-0-0-7-7-7-7-7-5-5-5--|-8-8-8-8-8-0-0-0-3-3-3-3-3-3-3-3--|

   |_|_|_| |_|_|_| |_|_|_| |_|_|_|    |_|_|_| |_|_|_| |_|_|_| |_|_|_| 

[Final Chorus B Lead] 
(Each note played fast - See Note 2 above) 
E|------------------------------------|-----------------------------------|
B|------------------------------------|-----------------------------------|
G|------------------------------------|-----------------------------------|
D|------------------10---------8------|-10---------8----------------------|
A|-8-------10-------------------------|------------------8----------------|
D|------------------------------------|-----------------------------------|
   |_|_|_|  |_|_|_|  |_|_|_| |_|_|_|     |_|_|_| |_|_|_| |_|_|_| |_|_|_| 

E|-----------------------------------|
B|-----------------------------------|
G|-----------------------------------|
D|-----------------------------------|
A|-8-------10-------7-------8--------|
D|-----------------------------------|
   |_|_|_|  |_|_|_| |_|_|_| |_|_|_|

[Final Chorus B Rhythm] 
E|----------------------------------|----------------------------------|
B|----------------------------------|----------------------------------|
G|----------------------------------|----------------------------------|
D|-3-3-3-3-3-0-0-0-7-7-7-7-7-5-5-5--|-8-8-8-8-8-0-0-0-3-3-3-3-3-3-3-3--|
A|-3-3-3-3-3-0-0-0-7-7-7-7-7-5-5-5--|-8-8-8-8-8-0-0-0-3-3-3-3-3-3-3-3--|
D|-3-3-3-3-3-0-0-0-7-7-7-7-7-5-5-5--|-8-8-8-8-8-0-0-0-3-3-3-3-3-3-3-3--|
   |_|_|_| |_|_|_| |_|_|_| |_|_|_|    |_|_|_| |_|_|_| |_|_|_| |_|_|_| 

E|----------------------------------|
B|----------------------------------|
G|----------------------------------|
D|-3-3-3-3-3-0-0-0-7-7-7-7-7-5-5-5--|
A|-3-3-3-3-3-0-0-0-7-7-7-7-7-5-5-5--|
D|-3-3-3-3-3-0-0-0-7-7-7-7-7-5-5-5--|
   |_|_|_| |_|_|_| |_|_|_| |_|_|_| 


************************************

| .  Staccato
| x  Fret Mute
| pm Palm Mute

************************************

            
            
Suggest correction
Creating personal tab
Creating personal tab
You can edit any tab online and save it as your Personal.

You can edit, replace or remove any tab part or add personal notes – all changes will be seen only by you.

Personal tabs can be accessed anytime from any device, even offline.
Learn more »
Give kudos to tab author, rate the tab!
1 2 3 4 5
comments
print report bad tab
guest
You may want to rate the tab now too:
select rating
Wanna post a correction for this tab? Suggest correction