Oops, an error
Loading. Please wait.

Needles Tab

version 3
version 3

Whole song

Interactive

1,135 views 1 this week
1 commentread comment
1 2 3 4 5
3 more votes to show rating
add to favorites
launch autoscroll
font size
0
reset
how to read this tab
guitar tuner
Autoscroll
slow
fast
+/-
esc
set tempo
stop
Help us to improve Ultimate-Guitar.com Take our survey!
×
Author
Seether
Needles
4 string Bass Standard Tuning Droped D

Starts with 4 Measures of Drums

Intro\Chorus
G------------------------------------------------------------|      |  |
D------------------------------------------------------------| \ /  |__|
A-------------------------333--------------------------------|  \      |
D-00-00-0-3333\5-00-00-0------0h2320-------------------------| / \     |
                                                                         
Verse (distortion)
G------------------------------------------------------------|      |  |
D------------------------------------------------------------| \ /  |__|
A---------------333------------------------------------------|  \      |
D--003h20-03h2------55---------------------------------------| / \     |

Chorus
G------------------------------------------------------------|      |  |
D------------------------------------------------------------| \ /  |__|
A-------------------------333--------------------------------|  \      |
D-00-00-0-3333\5-00-00-0------0h2320-------------------------| / \     |
 
Verse (distortion)
G------------------------------------------------------------|      |  |
D------------------------------------------------------------| \ /  |__|
A---------------333------------------------------------------|  \      |
D--003h20-03h2------55---------------------------------------| / \     |

Bridge (2:05)
G--------------------------------------------------------------|
D--------------------------------------------------------------|
A--------------------------------------------------------------|
D--0(ring for 2 measures)---0(Ring for 1 and a half measures)--|

Bridge (2:13)<---Come back in on the 3rd beat of the 3rd measure    
G------------------------------------------------------------|     |  |
D------------------------------------------------------------|\ /  |__|  
A---------------------------3--------------------------------| \      |
D-111--111-00----3h2-3h2-00---1-00-3h2-3h2-00----------------|/ \     |

Chorus                                                               __
G------------------------------------------------------------|      /  \
D------------------------------------------------------------| \ /  |  /
A-------------------------333--------------------------------|  \     /   
D-00-00-0-3333\5-00-000------0h2320--------------------------| / \   /___

Verse
G------------------------------------------------------------|      |   |
D------------------------------------------------------------| \ /  |___|
A---------------333------------------------------------------|  \       |
D--003h20-03h2------55---------------------------------------| / \      |

Outro 
G------------------------------------------------------------|      |   |
D------------------------------------------------------------| \ /  |___|
A------------------3-----------------------------------------|  \       |
D--00-3h2-3h2-00-----1---00-3h2-3h2-00-1-111-----------------| / \      |

Suggest correction
Give kudos to tab author, rate the tab!
1 2 3 4 5
comments
print report bad tab
1 comment total.
0 reply
Daughtryfan497 1,207 Jun 20, 2015 10:56 PM

didn't like this contribution

guest
You may want to rate the tab now too:
select rating
Wanna post a correction for this tab? Suggest correction