Oops, an error
Loading. Please wait.

Needles Tab

version 4
version 4

Solo

Whole song

Interactive

2,754 views 12 this week
no commentswrite comment
1 2 3 4 5
excellent!
x 1
add to favorites
launch autoscroll
font size
0
reset
how to read this tab
guitar tuner
Tab Pro tools
  • play this tab
  • loop segment
  • change instrument
  • show fretboard
  • metronome
Autoscroll
slow
fast
+/-
esc
set tempo
stop
Contributor
Difficulty
Tuning
novice
D A D G B E
-------------------------------------------------------------------------------
                             Needles - Seether
-------------------------------------------------------------------------------
Tabbed by:AdamK12
Email:AdamK14@hotmail.com

Tuning:Drop D

I did not include the strumming pattern in this tab, i'm here to help, not spoonfeed. It 
not be 100% correct, but I think its closer than many of the tabs here.

Enjoy. =]

Intro: Clean
e|-0------------------0-0-0-------------------------------------------------|
B|-3------------------3-3-3-------------------------------------------------|
G|-2-----x3-----------2-2-2---5-5-5-5---7-----------------------------------|
D|-0------------------0-0-0---3-3-3-3/--5--x1-------------------------------|
A|----------------------------3-3-3-3/--5-----------------------------------|
E|----------------------------3-3-3-3/--5-----------------------------------|

Pre-chorus:
e|-0-0-0--------------------------------------------------------------------|
B|-3-3-3--------------------------------------------------------------------|
G|-2-2-2--------------------------------------------------------------------|
D|-0-0-0---10-10-10--0-3-2--------------------------------------------------|
A|---------10-10-10--0-3-2--------------------------------------------------|
E|---------10-10-10--0-3-2--------------------------------------------------|

Chorus:
e|--------------------------------------------------------------------------|
B|--------------------------------------------------------------------------|
G|---------------------5--5-5-5-5-------------------------------------------|
D|-0--0-2h3-0-xx-0-2h3-5--5-5-5-5--5-5-5--1-1-x2----------------------------|
A|-0--0-2h3-0-xx-0-2h3-3--3-3-3-3--5-5-5--1-1-------------------------------|
E|-0--0-2h3-0-xx-0-2h3-------------5-5-5--1-1-------------------------------|

Breakdown:
e|--------------------------------------------------------------------------|
B|--------------------------------------------------------------------------|
G|--------------------------------------------------------------------------|
D|-1-1-1-1-1-1-0------------------------------------------------------------|
A|-1-1-1-1-1-1-0-x2---------------------------------------------------------|
E|-1-1-1-1-1-1-0------------------------------------------------------------|
     . .   . .
e|--------------------------------------------------------------------------|
B|--------------------------------------------------------------------------|
G|--------------------------------------------------------------------------|
D|-0-0-3h2-0-3h2-2-3h2-0-0-3h2--1-0-0-1-------------------------------------|
A|-0-0-3h2-0-3h2-2-3h2-0-0-3h2--1-0-0-1-------------------------------------|
E|-0-0-3h2-0-3h2-2-3h2-0-0-3h2--1-0-0-1-------------------------------------|
                                  . .

Pre-chorus
Chorus
Intro (Last half with distortion)
Pre-chorus (Distorted)
Chorus
Breakdown
Intro W/ Distortion
Chorus x2


| /  slide up
| \  slide down
| h  hammer-on
| p  pull-off
| ~  vibrato
| +  harmonic
| x  Mute note
===============================================================================
comments
We did not receive enough feedback on this tab! Please rate:
print report bad tab
1 2 3 4 5
I want to post or [tab]
guest
You may want to rate the tab now too:
select rating
Please do not post tabs as comments. Select "correction" instead!