Oops, an error
Loading. Please wait.

Never Leave Bass Tab

version 1
version 1

Whole song

Interactive

1,066 views 1 this week
no commentswrite comment
1 2 3 4 5
please rate
add to favorites
launch autoscroll
font size
0
reset
guitar tuner
Autoscroll
slow
fast
+/-
esc
set tempo
stop
Help us to improve Ultimate-Guitar.com Take our survey!
×
Author
Difficulty
intermediate
Seether - Never leave
Album: Karma And Effect

bass tab

by : doky 2007
taquilleros_de_sudamerica_maroyu_el_grupo_tropical_del_momento@hotmail.com

5-stringed bass
G D A E B

   VERSO
G-|-------------------------|-----------------------------|
D-|--------11------11h13-11-|-------7-------7/13-14-13----|
A-|---11------11------------|---7-----7---7------------13-|
E-|-9----9-------9----------|-5---5-----5-----------------|
B-|-------------------------|-----------------------------|
                                                                              

   PRE-CORO
G-|--------------------|-------------------------|
D-|--------11-11h13-11-|-------7---7/13-14-13----|
A-|---11---------------|---7-----7------------13-|
E-|-9----9-------------|-5---5-------------------|
B-|--------------------|-------------------------|
                                                                              

   CORO
G-|---------------------------------|
D-|---------------------------------|
A-|---------------------------------|
E-|-9-9-9-9-9-9-9-9-5-5-5-5-5-5-5-5-|
B-|---------------------------------|
                                                                              

   VARIACION DE CORO
G-|---------|---------------------------------|
D-|---------|---------------------------------|
A-|---------|---------------------------------|
E-|---------|-----------------5-5-5-5-5-5-5-5-|
B-|---------|-2-2-2-2-2-2-2-2-----------------|
                                                              

   BREAK
G-|---------------------------------|
D-|---------------------------------|
A-|---------------------------------|
E-|---------------------------------|
B-|-5-5-5-5-5-5-5-5-3-3-3-3-3-3-3-3-|
                                                                              

   MIDDLE
G-|---------------------------------|---|---------|
D-|---------------------------------|---|---------|
A-|---------------------------------|---|----12---|
E-|-----------------7-7-7-7-7-7-7-7-|---|---------|
B-|-7-7-7-7-7-7-7-7-----------------|---|-10------|
                                      +                                        

G-|---|--------------------------|
D-|---|---11-11---------11-------|
A-|---|---------11-9-11----------|
E-|---|-9--------------------9---|
B-|---|--------------------------|
    +                             

Mando unas salutaciones Al Arturo Escobar de QB 2004 que era rockero oooye y me ha
prestado muchos cd's que los he escuchado y me han traumado, tambien le 
vendido cd's de mi coleccion porque estaba rematando de ultima hora.

doky2007                                             
Suggest correction
Give kudos to tab author, rate the tab!
1 2 3 4 5
comments
print report bad tab
guest
You may want to rate the tab now too:
select rating
Wanna post a correction for this tab? Suggest correction