Oops, an error
Loading. Please wait.

Never Leave Bass Tab

version 2
version 2

Whole song

Interactive

831 views 1 this week
no commentswrite comment
1 2 3 4 5
please rate
add to favorites
launch autoscroll
font size
0
reset
guitar tuner
Autoscroll
slow
fast
+/-
esc
set tempo
stop
Help us to improve Ultimate-Guitar.com Take our survey!
×
Author
“Never Leave” - Seether

Verse    0:15                                         x8
G |------------------------------------------------------|
D |-----------11-13-11~\-----------------13-14-13--------|
A |--------------------------12-14-12~/14----------14----|
Db|-10-12-0~~~------------8~~----------------------------|


Chorus   1:15                        x2
G |-------------------------------------|
D |-------------------------------------|
A |--4444444444444444-0000000000000000--|
Db|-------------------------------------|


Verse    1:30                                         x8
G |------------------------------------------------------|
D |-----------11-13-11~\-----------------13-14-13-------|
A |--------------------------12-14-12~/14----------14----|
Db|-10-12-0~~~------------8~~----------------------------|


Bridge   2:30                        x2
G|-------------------------------------|-----------------------------------|
D|-------------------------------------|-----------------------------------|
A|--4444444444444444-0000000000000000--|-4444444444444444------------------|
Db|------------------------------------|------------------0000000000000000-|
                                           x3                          (fourth time)
G|------------------------------------|-------------------------------|
D|------------------------------------|-------------------------------|
A|-9999999999999999-2222222222222222--|-9999999999999999-2222222222222|
Db|-------------------------------------|-----------------------------|
                       
G |---------------------------------------|
D |---------------13~~~11~~~~~~-----------|
A |----------------------------7~~~~~~~~~-|
Db|--8~~~---12~~~~~~~~~~~~~~~-------------|


Chorus   3:45                 (repeated)
G |-------------------------------------|
D |-------------------------------------|
A |--4444444444444444-0000000000000000--|
Db|-------------------------------------|

Outro    4:34
G |------------------------------------------------------|
D |------------------------------------------------------|
A |--4444444444444444------------------2222222222222222--|
Db|-------------------0000000000000000-------------------|
Suggest correction
Give kudos to tab author, rate the tab!
1 2 3 4 5
comments
print report bad tab
guest
You may want to rate the tab now too:
select rating
Wanna post a correction for this tab? Suggest correction