Oops, an error
Loading. Please wait.

Never Leave Tab

version 2
version 2

Whole song

Interactive

13,433 views 21 this week
8 commentsread comments
1 2 3 4 5
x 8
add to favorites
launch autoscroll
font size
0
reset
how to read this tab
guitar tuner
Autoscroll
slow
fast
+/-
esc
set tempo
stop
Help us to improve Ultimate-Guitar.com Take our survey!
×
Difficulty
intermediate
Never Leave by Seether

Guitar #1 - Pat Callahan (Rhythm tab)
Half Step-in DADGBE

Intro-Verse  Clean
				            Last part before verse
E||----------------------------------------|--------|
B||-------5--------------------------------|--------|
G||-----5---5--5h7~-7~/------10------------|--------|
D||---7--7---7-------------8----8---8h10~10|--10b8--|
A||-5--------------------8--8----8---------|--------|
D||--------------------8-------------------|--------|

Chorus: With Distortion
E||----------------------------------------------------------------------|
B||----------------------------------------------------------------------|
G||-x-x-x-7-7-7-7/-9-9-9/-10-10-10-10/-9/-10/-9--10-10-10-10-10-10-10-10-|
D||-x-x-x-----------------------------------------8--8--8--8--8--8--8--8-|
A||-x-x-x-5-5-5-5/-7-7-7/-8--8--8--8/--7/-8/--7---8--8--8--8--8--8--8--8-|
D||-----------------------------------------------8--8--8--8--8--8--8--8-|

     2 time
E||-----------------------------------------------------------------------|
B||-----------------------------------------------------------------------|
G||-x-x-x-7-7-7-7/-9-9-9/-10-10-10-10/-14-14-14---10-10-10-10-10-10-10-10-|
D||-x-x-x------------------------------------------8--8--8--8--8--8--8--8-|
A||-x-x-x-5-5-5-5/-7-7-7/-8--8--8--8/--12-12-12----8--8--8--8--8--8--8--8-|
D||------------------------------------------------8--8--8--8--8--8--8--8-|


Verse  Clean                                Last part before chorus
E||----------------------------------------|--------|
B||-------5--------------------------------|--------|
G||-----5---5--5h7~-7~/------10------------|--------|
D||---7--7---7-------------8----8---8h10~10|--10b8--|
A||-5--------------------8--8----8---------|--------|
D||--------------------8-------------------|--------|


Chorus: With Distortion
E||----------------------------------------------------------------------|
B||----------------------------------------------------------------------|
G||-x-x-x-7-7-7-7/-9-9-9/-10-10-10-10/-9/-10/-9--10-10-10-10-10-10-10-10-|
D||-x-x-x-----------------------------------------8--8--8--8--8--8--8--8-|
A||-x-x-x-5-5-5-5/-7-7-7/-8--8--8--8/--7/-8/--7---8--8--8--8--8--8--8--8-|
D||-----------------------------------------------8--8--8--8--8--8--8--8-|

     2 time		 				                    ..its only a symbol"
E||-----------------------------------------------------------------------|----------------------------|
B||-----------------------------------------------------------------------|----------------------------|
G||-x-x-x-7-7-7-7/-9-9-9/-10-10-10-10/-14-14-14---10-10-10-10-10-10-10-10-|----------------------------|
D||-x-x-x------------------------------------------8--8--8--8--8--8--8--8-|-3-3-3-3-3-3-3-3-2----------|
A||-x-x-x-5-5-5-5/-7-7-7/-8--8--8--8/--12-12-12----8--8--8--8--8--8--8--8-|-3-3-3-3-3-3-3-3-2----------|
D||------------------------------------------------8--8--8--8--8--8--8--8-|-3-3-3-3-3-3-3-3-2----------|

Brigde: 3:00mins
E||-----------------------------------------------------------------------|
B||-----------------------------------------------------------------------|
G||-12-12-12-12/10-10-10-10/-9-9--9/10/-9----12-hit the chords 8'xs-------|
D||------------------------------------------10---------------------------|
A||-10-10-10-10/8--8--8--8-/-7-7--7/8-/-7----10---------------------------|
D||------------------------------------------10---------------------------|


Clean Solo at 3:30mins		2x's	     1st time     2nd time
E||----------------------------------------|--17--17------|--------|
B||----------------------------------------|-15--15--15~--|-15~----|
G||-5/-7-7/-9-9/-10-10/-12-12/-12h14-12h14-|--------------|--------|
D||----------------------------------------|--------------|--------|
A||----------------------------------------|--------------|--------|
D||----------------------------------------|--------------|--------|

Chorus:
E||----------------------------------------------------------------------|
B||----------------------------------------------------------------------|
G||-x-x-x-7-7-7-7/-9-9-9/-10-10-10-10/-9/-10/-9--10-10-10-10-10-10-10-10-|
D||-x-x-x-----------------------------------------8--8--8--8--8--8--8--8-|
A||-x-x-x-5-5-5-5/-7-7-7/-8--8--8--8/--7/-8/--7---8--8--8--8--8--8--8--8-|
D||-----------------------------------------------8--8--8--8--8--8--8--8-|
     2 time		 				                    ..its only a symbol"
E||-----------------------------------------------------------------------|----------------------------|
B||-----------------------------------------------------------------------|----------------------------|
G||-x-x-x-7-7-7-7/-9-9-9/-10-10-10-10/-14-14-14---10-10-10-10-10-10-10-10-|----------------------------|
D||-x-x-x------------------------------------------8--8--8--8--8--8--8--8-|-3-3-3-3-3-3-3-3-2----------|
A||-x-x-x-5-5-5-5/-7-7-7/-8--8--8--8/--12-12-12----8--8--8--8--8--8--8--8-|-3-3-3-3-3-3-3-3-2----------|
D||------------------------------------------------8--8--8--8--8--8--8--8-|-3-3-3-3-3-3-3-3-2----------|

With distortion this time
E||----------------------------------------|--17--17------|
B||----------------------------------------|-15--15--15~--|
G||-5/-7-7/-9-9/-10-10/-12-12/-12h14-12h14-|--------------|
D||----------------------------------------|--------------|
A||----------------------------------------|--------------|
D||----------------------------------------|--------------|

...Its only a symbol"
E||----------------------------|
B||----------------------------|
G||----------------------------|
D||-3-3-3-3-3-3-3-3-2----------|
A||-3-3-3-3-3-3-3-3-2----------|
D||-3-3-3-3-3-3-3-3-2----------|
Suggest correction
comments
print report bad tab
8 comments total. Showing first comments.
0 reply
incubusbassplay 10 Dec 26, 2005 10:26 AM

brilliant! 5 stars! excellent

0 reply
madoc stone 2,772 Feb 24, 2006 01:14 AM

i think this tab is awsome.

0 reply
Oh_Nutz 41 Apr 22, 2006 06:17 PM

all parts should be played a step down

guest
You may want to rate the tab now too:
select rating
Wanna post a correction for this tab? Suggest correction