Oops, an error
Loading. Please wait.

Never Leave Tab

version 4
version 4

Whole song

Interactive

1,530 views 15 this week
no commentswrite comment
1 2 3 4 5
please rate
add to favorites
launch autoscroll
font size
0
reset
how to read this tab
guitar tuner
Autoscroll
slow
fast
+/-
esc
set tempo
stop
Help us to improve Ultimate-Guitar.com Take our survey!
×
Author
Difficulty
Tuning
novice
D A D G B E
I saw that some parts of this song were missing from the posted tabs. It's a 
really pretty song so i tabbed the whole thing out.

-------------------------------------------------------------------------------
                             Never Leave - Seether
-------------------------------------------------------------------------------
Tabbed by:jeller1224
Email:jeller_24@hotmail.com

Tuning:DADGBE
   Main Riff                                            2nd time 
e|------------------------------------------|--------------------------------|
B|----------5-------------------------------|--------------------------------|
G|------5----5--5h7--7\--------10-----------|--------------------------------|
D|-----7--7---7-------------8----8--8h10/---|-10b-8--------------------------|
A|----5--------------------8--8---8---------|--------------------------------|
D|------------------------8-----------------|--------------------------------|


  Lead Riff(while main riff is playing through the second time) {2X}
e|---------------------------------------------------------------------------|
B|---------------------------------------------------------------------------|
G|--18-18-16-16-13-13-11-11-11-11-11-9~--------------------------------------|
D|---------------------------------------------------------------------------|
A|---------------------------------------------------------------------------|
E|---------------------------------------------------------------------------|


 pre-chorus lead riff
e|---------------------------------------------------------------------------|
B|---------------------------------------------------------------------------|
G|--18-18-18\16-16-16-16\13-13-13-13\11-11-11-11-11-11-11-9~-----------------|
D|---------------------------------------------------------------------------|
A|---------------------------------------------------------------------------|
E|---------------------------------------------------------------------------|

  Chorus/(distorted riff)                                       (might be strummed more times)
e|---------------------------------------------------------------------------|
B|--x-x-x-x------------------------------------------------------------------|
G|--x-x-x-x--7-7-7-7/9-9-9/10-10-10-10/9-10/9--8--8--8--8--8--8--8--8--------|
D|--x-x-x-x-----------------------------------10-10-10-10-10-10-10-10--------|
A|--x-x-x-x--5-5-5-5/7-7-7/8--8--8---8/9--8/9-10-10-10-10-10-10-10-10--------|
E|--------------------------------------------10-10-10-10-10-10-10-10--------|
                                     
         (once again different strumming)      strum with this\|/ in the riff at  the end of song
e|-------------------------------------------------|-------------------------|
B|-------------------------------------------------|-------------------------|
G|--7-7-7-7/9-9-9/10-10-10/14-14-14--10-10-10-10-10|-------------------------|
D|-----------------------------------8--8--8--8--8-|-3-----------------------|
A|--5-5-5-5/7-7-7/8--8--8-/12-12-12--8--8--8--8--8-|-3-----------------------|
E|-----------------------------------8--8--8--8--8-|-3-----------------------|


  Clean lead solo/riff                                     2nd time 
e|------------------------------------------16---16----|---------------------|
B|----------------------------------------14---14---14-|--14~----------------|
G|---5/7-7-7/9-9-9/10-10-10/12-12-12h14-12-------------|---------------------|
D|-----------------------------------------------------|---------------------|
A|-----------------------------------------------------|---------------------|
E|-----------------------------------------------------|---------------------|

Ending solo with wah wah i think but its the same notes as the clean solo.
sorry this is only my second tab but these are all of the riffs in the song and 
should be really easy to put together

************************************

| /   slide up
| \   slide down
| h   hammer-on
| p   pull-off
| ~   vibrato
| +   harmonic
| x   Mute note
| b   Bend
| pb  Pre-bend
| br  Bend release
| pbr Pre-bend release
| brb Bend release bend

************************************
Suggest correction
Give kudos to tab author, rate the tab!
1 2 3 4 5
comments
print report bad tab
guest
You may want to rate the tab now too:
select rating
Wanna post a correction for this tab? Suggest correction