Oops, an error
Loading. Please wait.

No Jesus Christ Tab

version 1
version 1

Whole song

Interactive

9,668 views 1 this week
5 commentsread comments
1 2 3 4 5
accurate
x 3
add to favorites
launch autoscroll
font size
0
reset
how to read this tab
guitar tuner
Autoscroll
slow
fast
+/-
esc
set tempo
stop
Help us to improve Ultimate-Guitar.com Take our survey!
×
Difficulty
Tuning
novice
C G C F A D
NO JESUS CHRIST ….VERY SIMPLE TAB……..by Lukas

This tab it´s pretty bad…i made it but it´s only for tose who really wanted to play and 
how to start…. So, it´s very very bad and simple….

Hey one thing,….when a chord like “12” (left one) appears, it could be replaced for the right one

D --------            D----------|
A---------            A--7-------|
F---12----            F---7------|
C---12---            C--7--------|
G---12---            G--5--------|
C---12----            C----------|

ANd if it´s an “10” chord, you can replace it for (3555)…i hope you know what i mean…


Post-Verse 1

D --------------------(here there´s a high tone, but dunno)--|
A--15---15-13-16------15------15-13-16-----------------------|
F------------------------------------------------------------|
C------------------------------------------------------------|
G------------------------------------------------------------|
C------------------------------------------------------------|

PostVerse 2

D ---17----17-15-18-------17--18--17-15-18--------------|
A-------------------------------------------------------|
F-------------------------------------------------------|
C-------------------------------------------------------|
G-------------------------------------------------------|
C-------------------------------------------------------|

YOU´RE NO JESUS CHRIST

D -------------------------------------------------------------------------------------|
A--------------------------------------------------------------------------------------|
F--------------------------------------------------------------------------------------|
C---0---0-----0-10-12--------0---0---0-10-12-------0---0-----0-10-12--------0---0--15--|
G---0---0-----0-10-12--------0---0---0-10-12-------0---0-----0-10-12--------0---0--15--|
C---0---0-----0-10-12--------0---0---0-10-12-------0---0-----0-10-12--------0---0--15--|

Bridge 1 (Put The Gun In My Mouth)

D ---------------------|
A----------------------|
F----7------3-----x-x--|
C----7------3-----x-x--|
G----5------3-----x-x--|
C----5------3-----x-x--|(little plucking, but dunno…)- (x 4)

YOU´RE NO JESUS CHRIST

D -------------------------------------------------------------------------------------|
A--------------------------------------------------------------------------------------|
F--------------------------------------------------------------------------------------|
C---0---0-----0-10-12--------0---0---0-10-12-------0---0-----0-10-12--------0---0--15--|
G---0---0-----0-10-12--------0---0---0-10-12-------0---0-----0-10-12--------0---0--15--|
C---0---0-----0-10-12--------0---0---0-10-12-------0---0-----0-10-12--------0---0--15--|(repeat many times)


CHORUS (pick really fast)

D -------------------------------------------------------------------------------------|
A--------------------------------------------------------------------------------------|
F----12-12-12-12-12-12----10-10-10-10-10-10----8-8-8-8-8-8----7-7-7-7-7-7--------------|
C----12-12-12-12-12-12----10-10-10-10-10-10----8-8-8-8-8-8----7-7-7-7-7-7--------------|
G----12-12-12-12-12-12----10-10-10-10-10-10----8-8-8-8-8-8----7-7-7-7-7-7--------------|
C----12-12-12-12-12-12----10-10-10-10-10-10----8-8-8-8-8-8----7-7-7-7-7-7----(repeat)--|

PostVerse 3

D ------------------------------------------------------|
A-------------------------------------------------------|
F-------------------------------------------------------|
C-------------------------------------------------------|
G----5--5--3--6------5---5—3--6-------------------------|
C-------------------------------------------------------|

CHORUS (pick really fast)

D ----------------------------------------------------------------------------------|
A-----------------------------------------------------------------------------------|
F----12-12-12-12-12-12----10-10-10-10-10-10----8-8-8-8-8-8----7-7-7-7-7-7-----------|
C----12-12-12-12-12-12----10-10-10-10-10-10----8-8-8-8-8-8----7-7-7-7-7-7-----------|
G----12-12-12-12-12-12----10-10-10-10-10-10----8-8-8-8-8-8----7-7-7-7-7-7-----------|
C----12-12-12-12-12-12----10-10-10-10-10-10----8-8-8-8-8-8----7-7-7-7-7-7----(x 4)--|

Outro (ARPEGGIOS)

D -----5------3------3-----0-------------------------------------|
A------7------5------1-----2-------------------------------------|
F------7-------5------1-----2-----(repeat)-----------------------|
C------7------5-------1-----2------------------------------------|
G------5------3-------3-----0------------------------------------|
C----------------------------------------------------------------|

Hope you enjoy!!!

Sorry for all the mistakes!!!
Suggest correction
Give kudos to tab author, rate the tab!
1 2 3 4 5
comments
print report bad tab
5 comments total. Showing first comments.
+1 reply
jadexcore 47 wrote on November 19 2007, 09:53 am

it's a good start, but there are really a lot of errors... nice try though.

+1 reply
awsomeguitarguy 152 wrote on December 4 2007, 04:52 pm

wheres the whole intro and first two verses? Great otherwise

+1 reply
CollapseOfAir 62 wrote on January 7 2008, 07:45 pm

The intro and verses are done on Bass, theres no guitar on it. this tab is pretty dead on

guest
You may want to rate the tab now too:
select rating
Please do not post tabs as comments. Select "correction" instead!