Oops, an error
Loading. Please wait.

No Jesus Christ Bass Tab

version 2
version 2

Whole song

Interactive

3,995 views 6 this week
2 commentsread comments
1 2 3 4 5
please rate
add to favorites
launch autoscroll
font size
0
reset
guitar tuner
Autoscroll
slow
fast
+/-
esc
set tempo
stop
Help us to improve Ultimate-Guitar.com Take our survey!
×
Author
Difficulty
Tuning
intermediate
C F A# D# G C
No Jesus Christ
by Seeter

tuning:
FCGC (highest to lowest)

h=hammer
/=slide
~=ring out
x(whatever #)=play that many times

:00
--------------------------------------------------------|
---0-0-0h10h12----0-0-0h10h12----0-0-0h10h12----0-0-15--|
--------------------------------------------------------|
--------------------------------------------------------|

:26 (alternate frets spaces with high 15 and 13, you may have to listen for it, continue 
chorus)

1:46
----------------------------------------------------------|
----------------------------------------------------------|
----------------------------------------------------------|
---0-0-0h10h12----0-0-0h10h12----0-0-0h10h12----0-0-15----|


2:12
--------------------------------|
--------------------------------|
---5~------3-3------------------|
-----0~-----------0~-----3-3----|

2:39
----------------------------------------------------------|
----------------------------------------------------------|
----------------------------------------------------------|
---0-0-0h10h12----0-0-0h10h12----0-0-0h10h12----0-0-15----|

3:05
-------------------------------|
-------------------------------|
-------------------------------|
--12x16/--10x16/--8x16/--7x16--|

3:31
--------------------------------------------------------|
---0-0-0h10h12----0-0-0h10h12----0-0-0h10h12----0-0-15--|
--------------------------------------------------------|
--------------------------------------------------------|

3:45 (alternate frets spaces with high 15 and 13, you may have to listen for it, 
'till chorus)

4:25
-------------------------------|
-------------------------------|
-------------------------------|
--12x16/--10x16/--8x16/--7x16--|

5:18
------------------------------|
------------------------------|
--5~-----3~-----1~-----0~-----|
------------------------------|

and that's it
have fun :)
please comment if you have any changes
Suggest correction
Give kudos to tab author, rate the tab!
1 2 3 4 5
comments
print report bad tab
2 comments total.
0 reply
lesteredw 10 wrote on April 19 2010, 09:25 pm

Hi.
Ok... every tab has this problem... the intro riff... agreed on high C... but its 0-0-0h10h11h12. Everyone is missing the 11... add it into it and it sounds much better and sounds correct. 10h12 sounds like you completely skip a note, which you do. add it and feel free to email me if you beg to differ... lesteredw@yahoo.com Let me know what you think.

0 reply
lesteredw 10 wrote on April 19 2010, 09:25 pm

Hi.
Ok... every tab has this problem... the intro riff... agreed on high C... but its 0-0-0h10h11h12. Everyone is missing the 11... add it into it and it sounds much better and sounds correct. 10h12 sounds like you completely skip a note, which you do. add it and feel free to email me if you beg to differ... lesteredw@yahoo.com Let me know what you think.

guest
You may want to rate the tab now too:
select rating
Wanna post a correction for this tab? Suggest correction