Oops, an error
Loading. Please wait.

No Jesus Christ Tab

version 2
version 2

Whole song

Interactive

19,827 views 30 this week
5 commentsread comments
1 2 3 4 5
excellent!
x 15
add to favorites
launch autoscroll
font size
0
reset
how to read this tab
guitar tuner
Tab Pro tools
  • play this tab
  • loop segment
  • change instrument
  • show fretboard
  • metronome
Autoscroll
slow
fast
+/-
esc
set tempo
stop
Contributor
Difficulty
Tuning
novice
C G C F A D
So... This is my first tab, I feel pretty good about it. I put the times above where the 
come in, hopefully they are close to the track you're all listening to. They should be 
 Enjoy - please rate!

Tuning ~ DROP C

/ = slide up
\ = slide down
b = bend
h = hammer on
p = pull off
() = lightly played accent note
x = palm mute
* = natural harmonic

(0:57)

D------------------------------------------------------------|
A-15--------15-13--/16---------15--------15-13--/16----------|
F----------------------(16)---(15)---------------------------|
C------------------------------------------------------------|
G------------------------------------------------------------|
C------------------------------------------------------------|
                                                ^(b)slightly
(1:36)

D-17--------17-15--/18---------17--------17-15--/18----------|
A----------------------(18)---(17)---------------------------|
F------------------------------------------------------------|
C------------------------------------------------------------|
G------------------------------------------------------------|
C------------------------------------------------------------|
                                ^(b)slightly
Chorus 1
"YOU'RE NO JESUS CHRIST!..."

D------------------------------------------------------------------------|
A------------------------------------------------------------------------|
F------------------------------------------------------------------------|
C-0---0-0-h10-h12----0---0-0-h10-h12----0---0-0-h10-h12-----0---0-15-----|
G-0---0-0-h10-h12----0---0-0-h10-h12----0---0-0-h10-h12-----0---0-15-----|
C-0---0-0-h10-h12----0---0-0-h10-h12----0---0-0-h10-h12-----0---0-15-----|
(x3)

D------------------------------------------------------------------------|
A------------------------------------------------------------------------|
F------------------------------------------------------------------------|
C-0---0-0-h10-h12----0---0-0-h10-h12----0---0-0-h10-h12----17p-15p-0-15--|
G-0---0-0-h10-h12----0---0-0-h10-h12----0---0-0-h10-h12----17p-15p-0-15--|
C-0---0-0-h10-h12----0---0-0-h10-h12----0---0-0-h10-h12----17p-15p-0-15--|

D------------------------------------------------------------------------|
A------------------------------------------------------------------------|
F------------------------------------------------------------------------|
C-0---0-0-h10-h12----0---0-0-h10-h12----0---0-0-h10-h12-----0---0-15-----|
G-0---0-0-h10-h12----0---0-0-h10-h12----0---0-0-h10-h12-----0---0-15-----|
C-0---0-0-h10-h12----0---0-0-h10-h12----0---0-0-h10-h12-----0---0-15-----|
(x3)

D------------------------------------------------------------------------|
A------------------------------------------------------------------------|
F------------------------------------------------------------------------|
C-0---0-0-h10-h12----0---0-0-h10-h12----0---0-0-h10-h12----12p-10p-0-10--|
G-0---0-0-h10-h12----0---0-0-h10-h12----0---0-0-h10-h12------------------|
C-0---0-0-h10-h12----0---0-0-h10-h12----0---0-0-h10-h12------------------|

Bridge (2:16)
"PUT the gun in my mouth..."

D------------------------------------------------------------------------|
A-3----------------------------------------------------------------------|
F-0----------------------------------------------------------------------|
C-0-----------------------------3----------------------0---0-------------|
G-0-----------------------------3----------------------0---0-------------|
C-0-----------------------------3----------------------0---0-------------|
                                                       x   x (heavy p.m.)

D------------------------------------------------------------------------|
A-3----------------------------------------------------------------------|
F-0----------------------------------------------------------------------|
C-0-----------------------------3----------------------0---0-----------3-|
G-0-----------------------------3----------------------0---0---0-h3-h5---|
C-0-----------------------------3----------------------3---0-------------|
                                                       x   x
(X2)

(2:42 - 3:09)
REPEAT CHORUS 1

(3:09 - 3:36)
Chorus 2
"you keep takin over..."

*Strum full chords fast.

D-12-
A-15-
F-14-
C-12-
G-12-
C-12- (x24)

D-10-
A-13-
F-12-
C-10-
G-10-
C-10- (x24)

D-8--
A-11-
F-10-
C-8--
G-8--
C-8-- (x24)

D-7--
A-10-
F-9--
C-7--
G-7--
C-7-- (x24)

Repeat once more, when you get to the last chord slide back up to the "10" chord halfway 
the measure...
D-7--            / D-10-|
A-10-           /  A-13-|
F-9--          /   F-12-|
C-7--         /    C-10-|
G-7--        /     G-10-|
C-7-- (x12) /      C-10-| (x12)


(4:16)

D------------------------------------------------------------|
A------------------------------------------------------*5----|
F------------------------------------------------------------|
C-12--------12-10--/13----(13)-12--------12-10--/13----------|
G------------------------------------------------------------|
C------------------------------------------------------------|
                                                nat. harm.^

(4:28-5:21) Repeat Chorus 2 Twice

(5:21)
Outro

D--------------------------------------|
A--------------------------------------|
F---------------14---------------------|
C-----12--------------12------12-------|
G--------12--------------12------12----|
C-12---------12---------------------12-|

D--------------------------------------|
A--------------------------------------|
F---------------12---------------------|
C-----10--------------10------10-------|
G--------10--------------10------10----|
C-10---------10---------------------10-|

D--------------------------------------|
A--------------------------------------|
F---------------10------------10-------|
C-----8---------------8----------8-----|
G--------8---------------8---------8---|
C-8----------8-----------------------8-|

D--------------------------------------|
A--------------------------------------|
F---------------9--------9h109----7----|
C--------7------------7--------7-------|
G-----7--------------------------------|
C-7----------7-------------------------|

throughout most of the outro there are picking patterns like this based off of these chords...

D----     D----     D----    D----|
A----     A----     A----    A----|
F-14-     F-12-     F-10-    F-9--|
C-12-     C-10-     C-8--    C-7--|
G-12-     G-10-     G-8--    G-7--|
C-12-     C-10-     C-8--    C-7--|

end on

D---
A---
F---
C-0-
G-0-
C-0-

Enjoy!
comments
print report bad tab
5 comments total. Showing first comments.
0 reply
THEguitarGOD789 wrote on May 26 2008, 07:43 pm

dude, it sounds great! awesome job!

0 reply
GreenAiden555 wrote on May 28 2008, 09:21 pm

Almost PERFECT. However, after you go up to 16th fret on the A string during the first verse, and the 13th fret C string during the last verse, I found that if you pick the strings behind the nut on the headstock (like Shaun plays in Burrito), you get something that sounds very similar to what's on the album.

0 reply
Lovemonk69 wrote on July 28 2008, 12:57 pm

I like this tab, it's good! Well done!

I want to post or [tab]
guest
You may want to rate the tab now too:
select rating
Please do not post tabs as comments. Select "correction" instead!