Oops, an error
Loading. Please wait.

No Jesus Christ Bass Tab

version 3
version 3

Whole song

Interactive

3,235 views 3 this week
no commentswrite comment
1 2 3 4 5
please rate
add to favorites
launch autoscroll
font size
0
reset
guitar tuner
Autoscroll
slow
fast
+/-
esc
set tempo
stop
Help us to improve Ultimate-Guitar.com Take our survey!
×
Author
-------------------------------------------------------------------------------
			     No Jesus Christ - Seether
-------------------------------------------------------------------------------

Tabbed By : CyborgPimp
e-mail: jon_holmesx@yahoo.com
Tuning: C A# C G


Verse

G-|----------------|----------------|
C-|0-0h10h12---0h10h12---0h10h12--14|
A#|----------------|----------------|
C-|0r--------------|----------------|

Chorus

G |----------------|----------------|
C |----------------|----------------|
A#|----------------|----------------|
C |0-0h10h12---0h10h12---0h10h12--14|

Bridge 1 
"Put the gun in my mouth..."

G |----------------|----------------|
C |----------------|----------------|
A#|----------------|----------------|
C |0r------0-0---0-|h3----------3-3-|

Bridge 2 
"You keep taking over..."

G |----------------|----------------|----------------|----------------|
C |0-0-0-0-0-0-0-0-|----------------|----------------|----------------|
A#|----------------|0-0-0-0-0-0-0-0-|----------------|----------------|
C |----------------|----------------|8-8-8-8-8-8-8-8-|8-8-8-8-8-8-8-8-|


Outro 1

G |----------------|----------------|----------------|----------------|
C |----------------|0------h5-h6-h7-|----------------|----------------|
A#|------------5/2-|----------------|0------h7-h8-h9-|----------------|
C |----------------|----------------|----------------|8-h9-h10/11--7--|

Outro 2 - There are a lot of little fills but this is a simple outline

G |----------------|----------------|----------------|
C |0------h5-h6-h7-|----------------|----------------|
A#|----------------|0------h7-h8-h9-|----------------|
C |----------------|----------------|8-h9-h10/11--7--|


Progression:

Verse    X32
Chorus   X8
Bridge 1 X4
Chorus   X8
Bridge 2 X2
Verse    X16
Bridge 2 X5
Down time 6 bars
Outro 1
Outro 2  X3
Suggest correction
Give kudos to tab author, rate the tab!
1 2 3 4 5
comments
print report bad tab
guest
You may want to rate the tab now too:
select rating
Please do not post tabs as comments. Select "correction" instead!