Oops, an error
Loading. Please wait.

No Shelter Tab

version 2
version 2

Whole song

Interactive

2,310 views 1 this week
no commentswrite comment
1 2 3 4 5
2 more votes to show rating
add to favorites
launch autoscroll
font size
0
reset
how to read this tab
guitar tuner
Autoscroll
slow
fast
+/-
esc
set tempo
stop
Help us to improve Ultimate-Guitar.com Take our survey!
×
Author
Seether – No Shelter                                     

Tuning: Drop C (or you can just Drop D)

Intro/Verse Part 1:  
       4 Times        End of 4th
D|-----------------|--------------|
A|-----------------|--------------|
F|-----------------|--------------| 
C|-----2h3---------|--------------|
G|---------3-3/5---|--5\3--3-3-3--|
C|--0-0------------|--------------|

Intro/Verse Part2: 
           3 Times           1st    2nd   3rd         The whole 4th
D|------------------------|-------|-----|-------|  D|----------------|
A|------------------------|-------|-----|-------|  A|----------------|
F|------------------------|--5-5--|--5--|--5-5--|  F|----------------|
C|--0-0-5-7--3-5-555-333--|--3-3--|--3--|--3-3--|  C|--0-0-5-7--3-7--|
G|--0-0-5-7--3-5-555-333--|--3-3--|--3--|--3-3--|  G|--0-0-5-7--3-5--|
C|--0-0-5-7--3-5-555-333--|-------|-----|-------|  C|--0-0-5-7--3-5--|

Intro/Verse Part 1:                     With Distortion
       4 Times     2nd & 4th             4 Times     2nd & 4th         
D|-----------------|-------|      D|-----------------|-------|
A|-----------------|-------|      A|-----------------|-------|
F|-----------------|-------|      F|-----------------|-------|
C|-----2h3---------|-------|      C|-----2h3---------|-------|
G|---------3-3/5---|--5\3--|      G|---------3-3/5---|--5\3--|
C|--0-0------------|-------|      C|--0-0------------|-------|

Pre Course:
D|-------------------------------------------------------|
A|-------------------------------------------------------|
F|-------------------------------------5-5---------------|
C|--10-----5-----0-0-5-7--3-5-555-333--3-3--10-----5-----|
G|---8-X8--5-X8--0-0-5-7--3-5-555-333--3-3---8-X8--5-X8--|
C|---8-----5-----0-0-5-7--3-5-555-333--------8-----5-----|

Course:    2 Times
D|--2--------------------------------|
A|--3-X8-----------------------------|
F|--2--------------------------------|
C|-------10-----5-----3-333-------3--|
G|--------8-X8--5-X7--3-333-4/3-4----|
C|--------8-----5-----3-333----------|

Intro/Verse Part 1:                     With Distortion
       4 Times     2nd & 4th             4 Times     2nd & 4th         
D|-----------------|-------|      D|-----------------|-------|
A|-----------------|-------|      A|-----------------|-------|
F|-----------------|-------|      F|-----------------|-------|
C|-----2h3---------|-------|      C|-----2h3---------|-------|
G|---------3-3/5---|--5\3--|      G|---------3-3/5---|--5\3--|
C|--0-0------------|-------|      C|--0-0------------|-------|

Pre Course:
D|-------------------------------------------------------|
A|-------------------------------------------------------|
F|-------------------------------------5-5---------------|
C|--10-----5-----0-0-5-7--3-5-555-333--3-3--10-----5-----|
G|---8-X8--5-X8--0-0-5-7--3-5-555-333--3-3---8-X8--5-X8--|
C|---8-----5-----0-0-5-7--3-5-555-333--------8-----5-----|

Course:    2 Times
D|--2--------------------------------|
A|--3-X8-----------------------------|
F|--2--------------------------------|
C|-------10-----5-----3-333-------3--|
G|--------8-X8--5-X7--3-333-4/3-4----|
C|--------8-----5-----3-333----------|

Bridge:
D|----------------------------------------------------|
A|----------------------------------------------------|
F|------------------7-5-7--10--9--7-------------------|
C|--10-----3--0-----X-X-X---X--X--X---10------12------|
G|--8------3--0-X7--5-3-5---8--7--5----8-X16--10-x16--|
C|--8-x16--3--0------------------------8------10------|

Course:    4 Times
D|--2--------------------------------|
A|--3-X8-----------------------------|
F|--2--------------------------------|
C|-------10-----5-----3-333-------3--|
G|--------8-X8--5-X7--3-333-4/3-4----|
C|--------8-----5-----3-333----------|

Outro:       3 Times        1st         2nd          3rd        The whole 4th
D|--------------------|-----------|-------------|-----------|D|-----------------------|
A|--------------------|-----------|-------------|-----------|A|-----------------------|
F|--------------------|------5-5--|--------5-5--|------5-5--|F|-----------------------|
C|--0-0-5-7--3-5-555--|--333-3-3--|--3-00--3-3--|--333-3-3--|C|--0-0-5-7--3-(7)-------|
G|--0-0-5-7--3-5-555--|--333-3-3--|--3-00--3-3--|--333-3-3--|G|--0-0-5-7--3-(5(Ring)--|
C|--0-0-5-7--3-5-555--|--333------|--3-00-------|--333------|C|--0-0-5-7--3-(5)Out)---|

Comment and Rate Please. Thanks
Suggest correction
Give kudos to tab author, rate the tab!
1 2 3 4 5
comments
print report bad tab
guest
You may want to rate the tab now too:
select rating
Wanna post a correction for this tab? Suggest correction