Oops, an error
Loading. Please wait.

Pig Tab

version 2
version 2

Whole song

Interactive

2,544 views 1 this week
2 commentsread comments
1 2 3 4 5
accurate
x 3
add to favorites
launch autoscroll
font size
0
reset
how to read this tab
guitar tuner
Tab Pro tools
  • play this tab
  • loop segment
  • change instrument
  • show fretboard
  • metronome
×
Best way to learn
"Pig"
Autoscroll
slow
fast
+/-
esc
set tempo
stop
Contributor
Tabber-Ian kusner(E-PIG)
Artist-seether
Song-Pig
Tuning-drop D and half step down

This is my first tab. I spent some time on it so it should be right.
Its all there exept some background guitar. Ill update
that when i get extra time.PLEASE RATE!!!

============================================================================
guitar 1
part 1
e---------------------------------|
b----10--11--10~------------------|
g--7---7---7----------------------|
d---------------------------------|
a---------------------------------|
D---------------------------------| x4

on 3rd and 4th time play this over intro

guitar 2
part 2
e----------------------------------|
b----------------------------------|
g----------------------------------|
d--000-1---------------------------|
a--000-1---------------------------|
D--000-1---------------------------|
pm ...


at the end of the fourth time play this

guitar 2
e------------------------------------|
b------------------------------------|
g--3bs-------------------------------|
d------------------------------------|
a------------------------------------|
D------------------------------------|
____________________________________________________________________________

guitar 1&2
part 3
e--------------------------------------|
b--------------------------------------|
g--------------------------------------|
d--1p0-0-1p0-0-0-0-0--2-1-5------------|
a--1p0-0-1p0-0-0-0-0--2-1-5------------|
D--1p0-0-1p0-0-0-0-0--2-1-5------------| x2
 pm    .     .        . .
part 4
e--------------------------------------|
b--------------------------------------|
g--------------------------------------|
d--0-0-0-0-1p0-0-0-0-0-2-1-5-----------|
a--0-0-0-0-1p0-0-0-0-0-2-1-5-----------|
D--0-0-0-0-1p0-0-0-0-0-2-1-5-----------|
 pm. . . .     .       . .
part 5
e--------------------------------------|
b--------------------------------------|
g--------------------------------------|
d-1p0-0-1p0-0-0-0-0-2-1-0--------------|
a-1p0-0-1p0-0-0-0-0-2-1-0--------------|
D-1p0-0-1p0-0-0-0-0-2-1-0--------------|
pm    .     .       . .
____________________________________________________________________________
part 2 x4 with this at the end of the 2nd and 4th time
e---------------------------------------|
b---------------------------------------|
g--3bs3bs-------------------------------|
d---------------------------------------|
a---------------------------------------|
D---------------------------------------|
____________________________________________________________________________

part 6
-----------------------------------------|
e----------------------------------------|
b----------------------------------------|
g----------------------------------------|
d--0-0-0-0-0-0-0-0-0-0-1/3-3-3-----------|
a--0-0-0-0-0-0-0-0-0-0-1/3-3-3-----------|
D--0-0-0-0-0-0-0-0-0-0-1/3-3-3-----------| x4
 pm. . . .   .   . . .
____________________________________________________________________________

part 3 x1 then part 4 x1 with this ending instead
e-----------------------------------------|
b-----------------------------------------|
g-----------------------------------------|
d--2-1-0----------------------------------|
a--2-1-0----------------------------------|
D--2-1-0----------------------------------|
 pm. .
____________________________________________________________________________

part 2 x4 then part 6 x4 then part 6 x4 no muting

____________________________________________________________________________

solo
e-----------------------------------------------------------------------|
b------------------------------8-8/10-10/8-8/10-10-11p10-10-10/12-12-12-|
g--9---9-9-9-9-9---2h3p2h3p2--------------------------------------------|
d-----------------------------------------------------------------------|
a-----------------------------------------------------------------------|
D-----------------------------------------------------------------------|
____________________________________________________________________________


Part 2 x4 then part 6 then part 6 no muting
____________________________________________________________________________

finally, part 3 x2, part 4, and part 5

thats it
============================================================================

tab legand
___________
~=vibrato
h=hammer on
p=pull off
/=slide
bs=bend slowly
.=palm mute
comments
We did not receive enough feedback on this tab! Please rate:
print report bad tab
1 2 3 4 5
2 comments total.
0 reply
fendercobain87 wrote on February 23 2010, 03:46 pm

not bad man u did well

0 reply
shawnmarihugh wrote on January 20 2014, 02:11 pm

this tab is isn't too bad but it would really help if you actually named the parts to the song

I want to post or [tab]
guest
You may want to rate the tab now too:
select rating
Please do not post tabs as comments. Select "correction" instead!