Oops, an error
Loading. Please wait.

Plastic Man Tab

version 2
version 2

Whole song

Interactive

5,347 views 6 this week
no commentswrite comment
1 2 3 4 5
accurate
x 3
add to favorites
launch autoscroll
font size
0
reset
how to read this tab
guitar tuner
Autoscroll
slow
fast
+/-
esc
set tempo
stop
Help us to improve Ultimate-Guitar.com Take our survey!
×
Difficulty
novice
Tunning: Eb Bb Gb Db Ab Db


Intro
Eb|--------1-0---------3------|
Bb|------------------1---1----|
Gb|------2---------0-------0--| x8
Db|----0-------0--------------|
Ab|--------------3------------|
Db|--0------------------------|

Chorus
Eb|------------------------------0-0-5-5-3-3-3-3--|
Bb|------------------------------3-3-3-3-1-1-1-1--|
Gb|--------7-------------5-------2-2-2-2-2-2-2-2--| x2
Db|------5---5---5-----3---3---3-0-0-0-0-0-0-0-0--|  
Ab|----5-------5-----3-------3---0-0-0-0-0-0-0-0--|
Db|--5-------------3-------------0-0-0-0-0-0-0-0--|

Verse
Eb|--------1-0---------3------|
Bb|------------------1---1----|
Gb|------2---------0-------0--| x6
Db|----0-------0--------------|
Ab|--------------3------------|
Db|--0------------------------|

Chorus
Eb|------------------------------0-0-5-5-3-3-3-3--|
Bb|------------------------------3-3-3-3-1-1-1-1--|
Gb|--------7-------------5-------2-2-2-2-2-2-2-2--| x4
Db|------5---5---5-----3---3---3-0-0-0-0-0-0-0-0--|  
|----5-------5-----3-------3---0-0-0-0-0-0-0-0--|
Db|--5-------------3-------------0-0-0-0-0-0-0-0--|

Bridge 
Eb|--------0-------------0--------|
Bb|--------0-------------0--------|
Gb|------0---0---0-----2---2---2--| x7
Db|----2-------2-----2-------2----|
Ab|--3-------------0--------------|
Db|-------------------------------|

Eb|--------0-------------0--------|
Bb|--------0-------------0--------|
Gb|------0---0---0-----2----------|
Db|----2-------2-----2------------|
Ab|--3-------------0--------------|
Db|-------------------------------|

Chorus
Eb|------------------------------0-0-5-5-3-3-3-3--|
Bb|------------------------------3-3-3-3-1-1-1-1--|
Gb|--------7-------------5-------2-2-2-2-2-2-2-2--| x3
Db|------5---5---5-----3---3---3-0-0-0-0-0-0-0-0--|  
Ab|----5-------5-----3-------3---0-0-0-0-0-0-0-0--|
Db|--5-------------3-------------0-0-0-0-0-0-0-0--|

Outro

Eb|------------------------------0-0-5-5-3-3-3-3--|
Bb|------------------------------3-3-3-3-1-1-1-1--|
Gb|--------7-------------5-------2-2-2-2-2-2-2-2--| 
Db|------5---5---5-----3---3---3-0-0-0-0-0-0-0-0--|  
Ab|----5-------5-----3-------3---0-0-0-0-0-0-0-0--|
Db|--5-------------3-------------0-0-0-0-0-0-0-0--|
Suggest correction
Give kudos to tab author, rate the tab!
1 2 3 4 5
comments
print report bad tab
guest
You may want to rate the tab now too:
select rating
Please do not post tabs as comments. Select "correction" instead!