Oops, an error
Loading. Please wait.

Plastic Man Tab

version 3
version 3

Whole song

Interactive

43,749 views 51 this week
7 commentsread comments
1 2 3 4 5
excellent!
x 38
add to favorites
launch autoscroll
font size
0
reset
how to read this tab
guitar tuner
Tab Pro tools
  • play this tab
  • loop segment
  • change instrument
  • show fretboard
  • metronome
×
Best way to learn
"Plastic Man"
Autoscroll
slow
fast
+/-
esc
set tempo
stop
Contributor
Tunning: Eb Bb Gb Db Ab Db
This is exactly how Shaun plays 'PLASTIC MAN' on 'ONE COLD NIGHT'.


Intro/Verse
Eb|-----------------------------------------------|
Bb|-----------------------------------------------|
Gb|--------------10---9----------------12---------|
Db|---------7-------------0--------10------10-----|
Ab|------8----------------------10------------10--|
Db|--0----------------------10--------------------|

     I   am    a    plastic      man
     wish I could be the one you could be proud of
     I'm   losing    heart      again
     wish I could show you what you think I'm made of

Chorus: G             F          Dsus2        A          G
Eb|------------------------------0-0-0-0----0--0--0--0\--0------|
Bb|------------------------------3-3-3-3--/-10-10-10-10--8------|
Gb|--------7-------------5-------2-2-2-2--/-9--9--9--9\--7------|
Db|------5---5---5-----3---3---3-0-0-0-0—---0--0--0--0---0------|
Ab|--5--------5----3---------3----------------------------------|
Db|--5-------------3--------------------------------------------|

Chorus: G             F          Dsus2
Eb|------------------------------0-0-0-0-----|
Bb|------------------------------3-3-3-3-----|
Gb|--------7-------------5-------2-2-2-2-----|
Db|------5---5---5-----3---3---3-0-0-0-0—----|
Ab|--5---------5---3---------3---0-0-0-0-----|
Db|--5-------------3-------------0-0-0-0-----|


Bridge: Cmaj7           Asus2
Eb|--------0--------------0----------|
Bb|--------0--------------0----------|
Gb|------4---4----4-----4----4----4--| x7
Db|----2-------2------2--------2-----|
Ab|--3--------------0----------------|
Db|----------------------------------|
comments
print report bad tab
7 comments total. Showing first comments. show 1 bad comment
+3 reply
HCOMustang wrote on April 23 2008, 08:11 pm

Ive been getting tabs off this site for a couple of years now and havent came across one that seemed 100% right until now. Good job and keep up the good work :-)

+3 reply
slut_shuttle wrote on May 15 2008, 06:08 am

I thought this one is damn near 100% correct, Apart from the bridge chords, which I'm cheating on regardless. just lightly strum C and A, in rhythem with the song.
Willus, I think yo ass should get wiped from UG for being a guitar player but not competent enough to spell chords. I hate your face.

I want to post or [tab]
guest
You may want to rate the tab now too:
select rating
Please do not post tabs as comments. Select "correction" instead!