Oops, an error
Loading. Please wait.

Plastic Man Tab

version 4
version 4

Whole song

Interactive

3,962 views 3 this week
no commentswrite comment
1 2 3 4 5
accurate
x 1
add to favorites
launch autoscroll
font size
0
reset
how to read this tab
guitar tuner
Tab Pro tools
  • play this tab
  • loop segment
  • change instrument
  • show fretboard
  • metronome
Autoscroll
slow
fast
+/-
esc
set tempo
stop
Difficulty
intermediate
Song: Plastic Man (Unplugged)
Album: One Cold Night

This Song is performed by Shaun Morgan [Seether]

Tuning: All Strings half step down
        Drop-D


INTRO / VERSE

Eb|---------------------------------------|
Bb|---------------------------------------|
Gb|---------10--9~--7--------12~----------|
Db|-------7---------------10----10--------|
Ab|-----8---------------10--------10------|
Db|---0---------------10------------------|


CHORUS

Eb|---------------------------------------0-0---X--/0--0--0--0--0--X--\0-0-|
Bb|---------------------------------------3--3--X--/10-10-10-10-10-X--\8-8-|
Gb|--------7~-------------5~--------------2---2-X--/9--9--9--9--9--X--\7-7-|
Db|------5----5---------3----3-------0----0---0----------------------------|
Ab|----5--------5-----3--------3-----0--0----------------------------------|
Db|--5------------0-3------------0---0--0----------------------------------|


BRIDGE

Eb|----------------------------------------|
Bb|--------0----------------0--------------|
Gb|------0----0-----------0----0---0-------|
Db|----2--------2-------2--------2---------|
Ab|--3----------------0--------------------|
Db|----------------------------------------|

INTRO  2x

VERSE  4x

CHORUS 2x

DROP IN (VERSE 1x)

VERSE  4x

CHROUS 4x

BRIDGE 8x

CHORUS 4x
comments
We did not receive enough feedback on this tab! Please rate:
print report bad tab
1 2 3 4 5
I want to post or [tab]
guest
You may want to rate the tab now too:
select rating
Please do not post tabs as comments. Select "correction" instead!