Oops, an error
Loading. Please wait.

Plastic Man Tab

version 5
version 5

Whole song

Interactive

13,055 views 6 this week
no commentswrite comment
1 2 3 4 5
excellent!
x 6
add to favorites
launch autoscroll
font size
0
reset
how to read this tab
guitar tuner
Autoscroll
slow
fast
+/-
esc
set tempo
stop
Help us to improve Ultimate-Guitar.com Take our survey!
×
Author
Difficulty
novice
Tunning: Eb Bb Gb Db Ab Db  (High to Low)
Tabbed By Fox (Jose)
Seether
Plastic Man

Intro
Eb|-----------------------------------------------|
Bb|-----------------------------------------------|
Gb|--------------10---9----------------12---------| Repeat 7 more times
Db|---------7-------------0--------10------10-----|
Ab|------8----------------------10------------10--|
Db|--0----------------------10--------------------|

     

Chorus:                       
Eb|----------------------------------0-0-0-0-/-0--0--0--0-/-0-0-----|
Bb|----------------------------------3-3-3-3-/-10-10-10-10/-8-8-----|
Gb|---------7---------------5--------2-2-2-2-/-9--9--9--9-/-7-7-----|
Db|-------5---5---5-------3---3---3--0-0-0-0—/-0--0--0--0-/-0-0-----|
Ab|--5--5-------5---3---3-------3-----------------------------------|
Db|--5--------------3-----------------------------------------------|


Eb|-------------------------------0--0--0-0--0--0-0~-|
Bb|-------------------------------3--3--3-3--3--3-3~-|
Gb|--------7-------------5--------2--2--2-2--2--2-2~-|
Db|------5---5---5-----3---3---3--0--0--0-0—-0--0-0~-|
Ab|--5-5-------5---3-3-------3----0--0--0-0--0--0-0~-|
Db|--5-------------3--------------0--0--0-0--0--0-0~-|

Verse:
Eb|-----------------------------------------------|
Bb|-----------------------------------------------|
Gb|--------------10---9----------------12---------| Repeat 5 more times
Db|---------7-------------0--------10------10-----|
Ab|------8----------------------10------------10--|
Db|--0----------------------10--------------------|

Chorus:                       
Eb|----------------------------------0-0-0-0-/-0--0--0--0-/-0-0-----|
Bb|----------------------------------3-3-3-3-/-10-10-10-10/-8-8-----|
Gb|---------7---------------5--------2-2-2-2-/-9--9--9--9-/-7-7-----| 
Db|-------5---5---5-------3---3---3--0-0-0-0—/-0--0--0--0-/-0-0-----|
Ab|--5--5-------5---3---3-------3-----------------------------------|
Db|--5--------------3-----------------------------------------------|

Repeat Chorus 2 more times

Eb|-------------------------------0--0--0-0--0--0-0~-|
Bb|-------------------------------3--3--3-3--3--3-3~-|
Gb|--------7-------------5--------2--2--2-2--2--2-2~-|
Db|------5---5---5-----3---3---3--0--0--0-0—-0--0-0~-|
Ab|--5-5-------5---3-3-------3----0--0--0-0--0--0-0~-|
Db|--5-------------3--------------0--0--0-0--0--0-0~-|

Bridge:          
Eb|------------------------------------|
Bb|--------0--------------0------------|
Gb|------4---4---4------4---4---4------| 
Db|----2-------2------2-------2--------|
Ab|--3--------------0------------------|
Db|------------------------------------|

Eb|-----------------------0----------|
Bb|--------0--------------0----------|
Gb|------4---4---4------4---4---4----| Repeat 2 times 
Db|----2-------2------2-------2------| 
Ab|--3--------------0----------------|
Db|----------------------------------|
========================================

Eb|------------------------------------|
Bb|--------0--------------0------------|
Gb|------4---4---4------4---4---4------| 
Db|----2-------2------2-------2--------|
Ab|--3--------------0------------------|
Db|------------------------------------|

Eb|-----------------------0----------|
Bb|--------0--------------0----------|
Gb|------4---4---4------4------------| 
Db|----2-------2------2--------------|
Ab|--3--------------0----------------|
Db|----------------------------------|


Chorus:                       
Eb|----------------------------------0-0-0-0-/-0--0--0--0-/-0-0-----|
Bb|----------------------------------3-3-3-3-/-10-10-10-10/-8-8-----|
Gb|---------7---------------5--------2-2-2-2-/-9--9--9--9-/-7-7-----| 
Db|-------5---5---5-------3---3---3--0-0-0-0—/-0--0--0--0-/-0-0-----|
Ab|--5--5-------5---3---3-------3-----------------------------------|
Db|--5--------------3-----------------------------------------------|

Repeat Chorus 2 more times

Outro
Eb|-------------------------------0--0--0-0--0--0-0~-|
Bb|-------------------------------3--3--3-3--3--3-3~-|
Gb|--------7-------------5--------2--2--2-2--2--2-2~-|
Db|------5---5---5-----3---3---3--0--0--0-0—-0--0-0~-|
Ab|--5-5-------5---3-3-------3----0--0--0-0--0--0-0~-|
Db|--5-------------3--------------0--0--0-0--0--0-0~-|




Suggest correction
comments
print report bad tab
guest
You may want to rate the tab now too:
select rating
Wanna post a correction for this tab? Suggest correction