Oops, an error
Loading. Please wait.

Remedy Tab

version 1
version 1
137,764 views 120 this week
25 commentsread comments
1 2 3 4 5
accurate
x 34
add to favorites
launch autoscroll
font size
0
reset
how to read this tab
guitar tuner
Autoscroll
slow
fast
+/-
esc
set tempo
stop
Help us to improve Ultimate-Guitar.com Take our survey!
×
Author
yoyojoe 369
Remedy - Seether
Drop D & 1/2 step down Tuning
Tabbed By YoYoJoe

qb - quarter bend
hb - half bend
fb - full bend
r - release
h - hammer-on
p - pull-off
X - Mute string
~ - vibrate
PM - palm mute

updated 27/5/05 - fixed tuning, now open power chords are half step down
updated 30/5/05 - fixed main riff & chorus
updated 07/7/06 - fixed high pitched part in intro and solo


[Main Riff]

e|----------------|
B|----------------|
G|----------------|
D|-2--X-0-2-2-0-5-|
A|-2--X-0-2-2-0-5-|
E|-2--X-0-2-2-0-5-|


[Intro] (harmonics)
e|---|------------------|
B|-4-|----------4-------|
G|---|----------------4-|
D|---|--------------5---|
A|---|------------------|
E|---|------------------|

 Giddy over intro (I fixed this part)
e|-------------------|----------------------|
B|-12----12-12-9--10-|----15----15-15-13-12-|
G|-14fb--14-14-10-12-|----17fb--17-17-15-14-|
D|-------------------|-X3-------------------|
A|-------------------|----------------------|
E|-------------------|----------------------|

[Verse Riff](clean)
e|---------------------------------|
B|---------------------------------|
G|---------------------------------|
D|-----2-------0-------2-------5---|
A|---2---2---0---0---2---2---5---5-|
E|-2-------0-------2-------5-------|

On top of riff(clean)
e|----------|
B|-10-12~~~-|
G|----------|
D|----------|
A|----------|
E|----------|

 [Bridge]("if you want me hold me back")
e|-----------------------------|
B|-----------------------------|
G|-----------------------------|
D|-7-7-7-7-7-7-7-7-3-3-3-3-3---|
A|-7-7-7-7-7-7-7-7-3-3-3-3-3---|
E|-7-7-7-7-7-7-7-7-3-3-3-3-3---|

e|-----------------|
B|-----------------|
G|---------------4-|
D|-----------------|
A|-----------------|
E|-----------------|
                *Harmonic

[Chorus]
e|----------------|------------------|
B|----------------|------------------|
G|----------------|------------------|
D|-2--X-0-2-2-0-5-|-X3-7--X-7-7-5-5--|
A|-2--X-0-2-2-0-5-|----7--X-7-7-5-5--|
E|-2--X-0-2-2-0-5-|----7--X-7-7-5-5--|

[Verse 2](distorted)
e|---------------------------------|
B|---------------------------------|
G|---------------------------------|
D|-----2-------0-------2-------5---|
A|---2---2---0---0---2---2---5---5-|
E|-2-------0-------2-------5-------|
PM___   _____   _____   _____   _

On top of riff(clean)

e|----------|
B|-10-12~~~-|
G|----------|
D|----------|
A|----------|
E|----------|


[Verse 3]
e|---------------------------------|
B|---------------------------------|
G|---------------------------------|
D|-7-7-7-7-7-7-7-7-5-5-5-5-5-0-0-0-| X4
A|-7-7-7-7-7-7-7-7-5-5-5-5-5-0-0-0-|
E|-7-7-7-7-7-7-7-7-5-5-5-5-5-0-0-0-|

(Main verse 4 times palm muted, w/intro harmonic riff)

[Solo] (again, LOTS of overdrive and distortion to make it sound right)
e|-------------------|----------------------|
B|-12----12-12-9--10-|----15----15-15-13-12-|
G|-14fb--14-14-10-12-|----17fb--17-17-15-14-|
D|-------------------|-X3-------------------|
A|-------------------|----------------------|
E|-------------------|----------------------|

e|--------------------------------|
B|-12---12---12---12---12---9--10-|
G|-14fb-14fb-14fb-14fb-14fb-11-12-|
D|--------------------------------|
A|--------------------------------|
E|--------------------------------|

e|-----------------------------------|
B|-12---12---12---12---15---15-15-15-|
G|-14fb-14fb-14fb-14fb-17fb----------|
D|-----------------------------------|
A|-----------------------------------|
E|-----------------------------------|

This is a fricken awesome song!
Send me a comment or PM if you find something wrong with it.



************************************

| ~  Vibrato

************************************
Suggest correction
What's this?
You can suggest a correction to this tab. Community and Mods will review your correction and vote to approve or reject it.
comments
print report bad tab
25 comments total. Showing first comments.
0 reply
GIJoeBassist 75 wrote on April 26 2005, 12:00 am

Close, Very close
All the harmonics and stuff are good but u need to check the verse, chorus, intro and bridge riffs, there either to low in the wrong scales or the beats wrong, but overall damn good
I got the other stuff down pat exact, I just couldn't do the harmonics
But damn good man, keep it real!

0 reply
corey3815 682 wrote on May 1 2005, 12:00 am

on the intro/chorus, replace the 3 with 4 and the next 3 with 1.

then it should be perfect.

0 reply
i luv britt 15 wrote on May 31 2005, 12:00 am

Yo that is pretty good keep up the good work

guest
You may want to rate the tab now too:
select rating
Please do not post tabs as comments. Select "correction" instead!